999
"DXF R12 Output" (www.mydxf.blogspot.com)
 0 
SECTION
 2 
HEADER
 9 
$ACADVER
 1 
AC1009
 9 
$EXTMIN
 10 
 0 
 20 
 0 
 9 
$EXTMAX
 10 
 8.5 
 20 
 11 
 0 
ENDSEC
 0 
SECTION
 2 
ENTITIES
0
LINE
8
Layer 1
10
0.846666
20
427.514000
11
-0.846666
21
425.820000
0
LINE
8
Layer 1
10
0.000000
20
428.078000
11
0.000000
21
425.256000
0
LINE
8
Layer 1
10
2.257780
20
425.538000
11
1.128890
21
424.409110
0
LINE
8
Layer 1
10
1.693330
20
426.103000
11
0.564440
21
424.974110
0
LINE
8
Layer 1
10
1.128890
20
426.667000
11
0.000000
21
425.538110
0
LINE
8
0
10
35.341300
20
229.132000
11
35.341300
21
214.199000
0
LINE
8
0
10
32.247970
20
229.132300
11
35.341300
21
229.132000
0
LINE
8
0
10
32.247970
20
214.198700
11
32.248000
21
229.132000
0
LINE
8
0
10
35.341330
20
214.198700
11
32.248000
21
214.199000
0
LINE
8
0
10
29.154700
20
198.199000
11
32.248000
21
198.199000
0
LINE
8
0
10
29.154700
20
245.132000
11
29.154700
21
198.199000
0
LINE
8
0
10
32.248030
20
245.132300
11
29.154700
21
245.132000
0
LINE
8
0
10
32.248030
20
241.932000
11
32.248000
21
245.132000
0
LINE
8
0
10
35.341330
20
241.932000
11
32.248000
21
241.932000
0
LINE
8
0
10
35.341330
20
245.132000
11
35.341300
21
241.932000
0
LINE
8
0
10
39.501300
20
245.132000
11
35.341300
21
245.132000
0
LINE
8
0
10
40.333620
20
245.049975
11
39.501302
21
245.132000
0
LINE
8
0
10
41.134042
20
244.807202
11
40.333615
21
245.049975
0
LINE
8
0
10
41.871745
20
244.412960
11
41.134039
21
244.807202
0
LINE
8
0
10
42.518249
20
243.882296
11
41.871743
21
244.412961
0
LINE
8
0
10
43.048913
20
243.235791
11
42.518245
21
243.882300
0
LINE
8
0
10
43.443151
20
242.498090
11
43.048912
21
243.235796
0
LINE
8
0
10
43.567097
20
242.089666
11
43.443151
21
242.498092
0
LINE
8
0
10
42.582670
20
241.563480
11
43.567097
21
242.089666
0
LINE
8
0
10
41.532007
20
240.701296
11
42.582667
21
241.563481
0
LINE
8
0
10
40.669707
20
239.650631
11
41.532000
21
240.701291
0
LINE
8
0
10
40.029070
20
238.451901
11
40.669708
21
239.650621
0
LINE
8
0
10
39.634508
20
237.151311
11
40.029068
21
238.451901
0
LINE
8
0
10
39.501282
20
235.798671
11
39.634508
21
237.151311
0
LINE
8
0
10
39.501282
20
207.532011
11
39.501300
21
235.799000
0
LINE
8
0
10
39.634526
20
206.179700
11
39.501300
21
207.532330
0
LINE
8
0
10
40.029086
20
204.879100
11
39.634526
21
206.179700
0
LINE
8
0
10
40.669726
20
203.680390
11
40.029088
21
204.879100
0
LINE
8
0
10
41.532018
20
202.629710
11
40.669725
21
203.680390
0
LINE
8
0
10
42.582685
20
201.767430
11
41.532025
21
202.629703
0
LINE
8
0
10
42.647975
20
201.732547
11
42.582694
21
201.767430
0
LINE
8
0
10
42.701309
20
204.705670
11
42.648000
21
204.706000
0
LINE
8
0
10
43.567146
20
201.241670
11
42.582719
21
201.767760
0
LINE
8
0
10
43.443200
20
200.833238
11
43.567146
21
201.241670
0
LINE
8
0
10
43.048961
20
200.095540
11
43.443200
21
200.833240
0
LINE
8
0
10
42.518294
20
199.449030
11
43.048962
21
200.095544
0
LINE
8
0
10
41.871792
20
198.918364
11
42.518298
21
199.449026
0
LINE
8
0
10
41.134088
20
198.524128
11
41.871794
21
198.918364
0
LINE
8
0
10
40.333664
20
198.281361
11
41.134091
21
198.524128
0
LINE
8
0
10
39.501351
20
198.199319
11
40.333669
21
198.281361
0
LINE
8
0
10
35.341349
20
198.199319
11
39.501300
21
198.199000
0
LINE
8
0
10
35.341300
20
201.399000
11
35.341300
21
198.199000
0
LINE
8
0
10
32.247970
20
201.399000
11
35.341300
21
201.399000
0
LINE
8
0
10
32.247970
20
198.199000
11
32.248000
21
201.399000
0
LINE
8
0
10
43.342200
20
204.334700
11
43.342200
21
201.362000
0
LINE
8
0
10
43.395534
20
214.788400
11
43.395500
21
204.335000
0
LINE
8
0
10
48.195500
20
214.788300
11
43.395500
21
214.788000
0
LINE
8
0
10
48.195500
20
237.188000
11
48.195500
21
214.788000
0
LINE
8
0
10
47.128830
20
237.188000
11
48.195500
21
237.188000
0
LINE
8
0
10
47.128830
20
243.588000
11
47.128800
21
237.188000
0
LINE
8
0
10
43.395470
20
243.588000
11
47.128800
21
243.588000
0
LINE
8
0
10
43.395470
20
247.428000
11
43.395500
21
243.588000
0
LINE
8
0
10
40.302170
20
247.428000
11
43.395500
21
247.428000
0
LINE
8
0
10
40.302170
20
245.294670
11
40.302200
21
247.428000
0
LINE
8
0
10
37.208870
20
245.294670
11
40.302200
21
245.295000
0
LINE
8
0
10
37.208870
20
249.561660
11
37.208800
21
245.295000
0
LINE
8
0
10
37.229289
20
249.769770
11
37.208800
21
249.561662
0
LINE
8
0
10
37.289984
20
249.969876
11
37.229289
21
249.769769
0
LINE
8
0
10
37.388544
20
250.154302
11
37.289984
21
249.969876
0
LINE
8
0
10
37.521237
20
250.315903
11
37.388545
21
250.154303
0
LINE
8
0
10
37.682838
20
250.448596
11
37.521238
21
250.315904
0
LINE
8
0
10
37.867265
20
250.547157
11
37.682839
21
250.448597
0
LINE
8
0
10
38.067372
20
250.607849
11
37.867265
21
250.547157
0
LINE
8
0
10
38.275477
20
250.628330
11
38.067372
21
250.607840
0
LINE
8
0
10
43.395472
20
250.628330
11
38.275500
21
250.628000
0
LINE
8
0
10
46.516880
20
250.320587
11
43.395500
21
250.628000
0
LINE
8
0
10
49.518370
20
249.410080
11
46.516880
21
250.320585
0
LINE
8
0
10
52.284560
20
247.931465
11
49.518380
21
249.410075
0
LINE
8
0
10
54.709200
20
245.941705
11
52.284560
21
247.931465
0
LINE
8
0
10
56.698960
20
243.517175
11
54.709200
21
245.941705
0
LINE
8
0
10
58.177570
20
240.750885
11
56.698960
21
243.517175
0
LINE
8
0
10
59.088080
20
237.749395
11
58.177573
21
240.750885
0
LINE
8
0
10
59.395493
20
234.628015
11
59.088080
21
237.749395
0
LINE
8
0
10
59.395493
20
204.334695
11
59.395500
21
234.628000
0
LINE
8
0
10
62.542160
20
204.334700
11
59.395500
21
204.335000
0
LINE
8
0
10
62.542160
20
201.241650
11
62.542200
21
204.335000
0
LINE
8
0
10
56.728870
20
201.241650
11
62.542200
21
201.241000
0
LINE
8
0
10
56.728870
20
198.147680
11
56.728800
21
201.241000
0
LINE
8
0
10
46.062100
20
198.147680
11
56.728800
21
198.148000
0
LINE
8
0
10
46.062200
20
201.241000
11
46.062200
21
198.148000
0
LINE
8
0
10
43.567160
20
201.241320
11
46.062200
21
201.241000
0
LINE
8
0
10
10.008000
20
202.039000
11
10.008000
21
198.946000
0
LINE
8
0
10
13.154670
20
202.039330
11
10.008000
21
202.039000
0
LINE
8
0
10
13.154670
20
232.332300
11
13.154700
21
202.039000
0
LINE
8
0
10
13.462113
20
235.453700
11
13.154700
21
232.332320
0
LINE
8
0
10
14.372620
20
238.455190
11
13.462113
21
235.453700
0
LINE
8
0
10
15.851233
20
241.221480
11
14.372623
21
238.455190
0
LINE
8
0
10
17.840993
20
243.646010
11
15.851233
21
241.221480
0
LINE
8
0
10
20.265523
20
245.635770
11
17.840993
21
243.646010
0
LINE
8
0
10
23.031703
20
247.114380
11
20.265523
21
245.635770
0
LINE
8
0
10
26.033203
20
248.024890
11
23.031713
21
247.114385
0
LINE
8
0
10
29.154693
20
248.332305
11
26.033203
21
248.024892
0
LINE
8
0
10
34.274693
20
248.332305
11
29.154700
21
248.332000
0
LINE
8
0
10
34.482800
20
248.311511
11
34.274695
21
248.332000
0
LINE
8
0
10
34.682907
20
248.250819
11
34.482800
21
248.311511
0
LINE
8
0
10
34.867333
20
248.152259
11
34.682907
21
248.250819
0
LINE
8
0
10
35.028934
20
248.019566
11
34.867334
21
248.152258
0
LINE
8
0
10
35.161629
20
247.857965
11
35.028934
21
248.019565
0
LINE
8
0
10
35.260187
20
247.673538
11
35.161629
21
247.857964
0
LINE
8
0
10
35.320881
20
247.473431
11
35.260187
21
247.673538
0
LINE
8
0
10
35.341362
20
247.265324
11
35.320873
21
247.473432
0
LINE
8
0
10
35.341362
20
242.998662
11
35.341300
21
247.266000
0
LINE
8
0
10
32.247970
20
242.999340
11
35.341300
21
242.999000
0
LINE
8
0
10
32.247970
20
245.132330
11
32.248000
21
242.999000
0
LINE
8
0
10
26.488000
20
198.946000
11
29.208000
21
198.946000
0
LINE
8
0
10
26.488000
20
195.852670
11
26.488000
21
198.946000
0
LINE
8
0
10
15.821400
20
195.852000
11
26.488000
21
195.852000
0
LINE
8
0
10
15.821400
20
198.946000
11
15.821400
21
195.852000
0
LINE
8
0
10
10.008060
20
198.945330
11
15.821400
21
198.946000
0
LINE
8
0
10
39.845600
20
184.818000
11
39.784620
21
185.437082
0
LINE
8
0
10
39.784620
20
184.198892
11
39.845600
21
184.818002
0
LINE
8
0
10
39.604055
20
183.603592
11
39.784621
21
184.198891
0
LINE
8
0
10
39.310784
20
183.055001
11
39.604055
21
183.603587
0
LINE
8
0
10
38.916139
20
182.574147
11
39.310784
21
183.055000
0
LINE
8
0
10
38.435266
20
182.179482
11
38.916138
21
182.574147
0
LINE
8
0
10
37.886648
20
181.886256
11
38.435268
21
182.179482
0
LINE
8
0
10
37.291358
20
181.705668
11
37.886652
21
181.886256
0
LINE
8
0
10
36.672262
20
181.644654
11
37.291355
21
181.705668
0
LINE
8
0
10
20.138955
20
181.644654
11
36.672300
21
181.645000
0
LINE
8
0
10
20.139000
20
181.911666
11
20.139000
21
181.645000
0
LINE
8
0
10
11.605700
20
181.911000
11
20.139000
21
181.911000
0
LINE
8
0
10
11.605700
20
187.725000
11
11.605700
21
181.911000
0
LINE
8
0
10
20.139000
20
187.725000
11
11.605700
21
187.725000
0
LINE
8
0
10
20.139030
20
187.991672
11
20.139000
21
187.725000
0
LINE
8
0
10
36.672300
20
187.991672
11
20.139000
21
187.991000
0
LINE
8
0
10
37.291400
20
187.929984
11
36.672307
21
187.991000
0
LINE
8
0
10
37.886697
20
187.749503
11
37.291403
21
187.929984
0
LINE
8
0
10
38.435313
20
187.456161
11
37.886693
21
187.749503
0
LINE
8
0
10
38.916183
20
187.061615
11
38.435311
21
187.456161
0
LINE
8
0
10
39.310829
20
186.580652
11
38.916184
21
187.061615
0
LINE
8
0
10
39.604100
20
186.032065
11
39.310829
21
186.580648
0
LINE
8
0
10
39.784666
20
185.436748
11
39.604100
21
186.032067
0
LINE
8
0
10
53.418900
20
177.884327
11
50.325600
21
177.885000
0
LINE
8
0
10
53.418930
20
162.951700
11
53.418900
21
177.885000
0
LINE
8
0
10
50.325570
20
162.951700
11
53.418900
21
162.951000
0
LINE
8
0
10
50.325570
20
177.884300
11
50.325600
21
162.951000
0
LINE
8
0
10
22.553900
20
174.862200
11
21.814594
21
173.479060
0
LINE
8
0
10
23.548784
20
176.074470
11
22.553905
21
174.862210
0
LINE
8
0
10
24.761045
20
177.069360
11
23.548775
21
176.074479
0
LINE
8
0
10
26.144185
20
177.808669
11
24.761035
21
177.069363
0
LINE
8
0
10
27.644875
20
178.263923
11
26.144185
21
177.808671
0
LINE
8
0
10
29.205625
20
178.417630
11
27.644875
21
178.263923
0
LINE
8
0
10
30.766365
20
178.263923
11
29.205625
21
178.417630
0
LINE
8
0
10
32.267065
20
177.808671
11
30.766375
21
178.263923
0
LINE
8
0
10
33.650215
20
177.069363
11
32.267075
21
177.808669
0
LINE
8
0
10
34.862485
20
176.074479
11
33.650225
21
177.069360
0
LINE
8
0
10
35.857375
20
174.862210
11
34.862494
21
176.074470
0
LINE
8
0
10
36.596684
20
173.479060
11
35.857378
21
174.862200
0
LINE
8
0
10
37.051938
20
171.978360
11
36.596686
21
173.479050
0
LINE
8
0
10
37.205656
20
170.417610
11
37.051938
21
171.978350
0
LINE
8
0
10
37.051938
20
168.856860
11
37.205656
21
170.417610
0
LINE
8
0
10
36.596686
20
167.356170
11
37.051938
21
168.856860
0
LINE
8
0
10
35.857378
20
165.973020
11
36.596684
21
167.356160
0
LINE
8
0
10
34.862494
20
164.760750
11
35.857375
21
165.973010
0
LINE
8
0
10
33.650225
20
163.765860
11
34.862485
21
164.760741
0
LINE
8
0
10
32.267075
20
163.026551
11
33.650215
21
163.765857
0
LINE
8
0
10
30.766375
20
162.571297
11
32.267065
21
163.026549
0
LINE
8
0
10
29.205625
20
162.417590
11
30.766365
21
162.571297
0
LINE
8
0
10
27.644875
20
162.571297
11
29.205625
21
162.417590
0
LINE
8
0
10
26.144185
20
163.026549
11
27.644875
21
162.571297
0
LINE
8
0
10
24.761035
20
163.765857
11
26.144185
21
163.026551
0
LINE
8
0
10
23.548775
20
164.760741
11
24.761045
21
163.765860
0
LINE
8
0
10
22.553905
20
165.973010
11
23.548784
21
164.760750
0
LINE
8
0
10
21.814594
20
167.356160
11
22.553900
21
165.973020
0
LINE
8
0
10
21.359340
20
168.856860
11
21.814593
21
167.356170
0
LINE
8
0
10
21.205634
20
170.417610
11
21.359341
21
168.856860
0
LINE
8
0
10
21.359341
20
171.978350
11
21.205634
21
170.417610
0
LINE
8
0
10
21.814593
20
173.479050
11
21.359340
21
171.978360
0
LINE
8
0
10
3.498940
20
183.217560
11
3.661819
21
184.870880
0
LINE
8
0
10
3.498940
20
157.617580
11
3.498990
21
183.218000
0
LINE
8
0
10
3.661869
20
155.964700
11
3.498990
21
157.618030
0
LINE
8
0
10
7.232320
20
155.964700
11
3.661870
21
155.965000
0
LINE
8
0
10
7.232320
20
152.871680
11
7.232320
21
155.965000
0
LINE
8
0
10
4.666240
20
152.871680
11
7.232320
21
152.871000
0
LINE
8
0
10
5.296640
20
151.691590
11
4.666241
21
152.871000
0
LINE
8
0
10
6.623151
20
150.075170
11
5.296641
21
151.691600
0
LINE
8
0
10
8.239571
20
148.748650
11
6.623151
21
150.075180
0
LINE
8
0
10
10.083731
20
147.762960
11
8.239571
21
148.748649
0
LINE
8
0
10
12.084691
20
147.156009
11
10.083731
21
147.762956
0
LINE
8
0
10
14.165651
20
146.951003
11
12.084691
21
147.156009
0
LINE
8
0
10
50.325591
20
146.951003
11
14.165600
21
146.951000
0
LINE
8
0
10
50.325600
20
150.151000
11
50.325600
21
146.951000
0
LINE
8
0
10
53.418930
20
150.151000
11
50.325600
21
150.151000
0
LINE
8
0
10
53.418930
20
146.951000
11
53.418900
21
150.151000
0
LINE
8
0
10
56.512240
20
146.951000
11
53.418900
21
146.951000
0
LINE
8
0
10
56.512300
20
193.885000
11
56.512300
21
146.951000
0
LINE
8
0
10
53.418900
20
193.885000
11
56.512300
21
193.885000
0
LINE
8
0
10
53.418960
20
190.685000
11
53.418900
21
193.885000
0
LINE
8
0
10
50.325570
20
190.685000
11
53.418900
21
190.685000
0
LINE
8
0
10
50.325570
20
193.885000
11
50.325600
21
190.685000
0
LINE
8
0
10
14.165600
20
193.885000
11
50.325600
21
193.885000
0
LINE
8
0
10
12.084700
20
193.680079
11
14.165660
21
193.885000
0
LINE
8
0
10
10.083740
20
193.073047
11
12.084700
21
193.680078
0
LINE
8
0
10
8.239580
20
192.087328
11
10.083740
21
193.073045
0
LINE
8
0
10
6.623160
20
190.760825
11
8.239580
21
192.087325
0
LINE
8
0
10
5.296650
20
189.144395
11
6.623160
21
190.760825
0
LINE
8
0
10
4.666250
20
187.964995
11
5.296649
21
189.144405
0
LINE
8
0
10
7.232329
20
187.964995
11
4.666240
21
187.965000
0
LINE
8
0
10
7.232320
20
184.871650
11
7.232320
21
187.965000
0
LINE
8
0
10
3.661870
20
184.871650
11
7.232320
21
184.871000
0
LINE
8
0
10
79.890700
20
143.832000
11
79.706274
21
143.930552
0
LINE
8
0
10
79.706300
20
143.931000
11
79.544700
21
144.063701
0
LINE
8
0
10
79.544700
20
144.064000
11
79.412005
21
144.225600
0
LINE
8
0
10
79.412000
20
144.225000
11
79.313442
21
144.409432
0
LINE
8
0
10
79.313400
20
144.410000
11
79.252705
21
144.610087
0
LINE
8
0
10
79.252700
20
144.610000
11
79.232211
21
144.818111
0
LINE
8
0
10
79.232300
20
144.818000
11
16.299000
21
144.818000
0
LINE
8
0
10
16.299000
20
144.818000
11
16.278511
21
144.609889
0
LINE
8
0
10
16.278500
20
144.610000
11
16.217805
21
144.409913
0
LINE
8
0
10
16.217800
20
144.410000
11
16.119242
21
144.225568
0
LINE
8
0
10
16.119200
20
144.225000
11
15.986505
21
144.063400
0
LINE
8
0
10
15.986600
20
144.064000
11
15.825000
21
143.931299
0
LINE
8
0
10
15.825000
20
143.931000
11
15.640574
21
143.832448
0
LINE
8
0
10
15.640500
20
143.832000
11
15.440393
21
143.771294
0
LINE
8
0
10
15.440400
20
143.772000
11
15.232295
21
143.751680
0
LINE
8
0
10
15.232300
20
143.751000
11
15.024192
21
143.771320
0
LINE
8
0
10
15.024200
20
143.772000
11
14.824093
21
143.832706
0
LINE
8
0
10
14.824100
20
143.832000
11
14.639674
21
143.930552
0
LINE
8
0
10
14.639700
20
143.931000
11
14.478103
21
144.063701
0
LINE
8
0
10
14.478100
20
144.064000
11
14.345405
21
144.225600
0
LINE
8
0
10
14.345400
20
144.225000
11
14.246840
21
144.409432
0
LINE
8
0
10
14.246800
20
144.410000
11
14.186108
21
144.610087
0
LINE
8
0
10
14.186100
20
144.610000
11
14.165611
21
144.818111
0
LINE
8
0
10
14.165600
20
144.818000
11
7.765660
21
144.818000
0
LINE
8
0
10
7.765660
20
144.818000
11
6.933339
21
144.735958
0
LINE
8
0
10
6.933340
20
144.736000
11
6.132913
21
144.493233
0
LINE
8
0
10
6.132910
20
144.493000
11
5.395204
21
144.098773
0
LINE
8
0
10
5.395200
20
144.099000
11
4.748694
21
143.568338
0
LINE
8
0
10
4.748700
20
143.568000
11
4.218035
21
142.921486
0
LINE
8
0
10
4.218030
20
142.922000
11
3.823788
21
142.184300
0
LINE
8
0
10
3.823790
20
142.184000
11
3.581017
21
141.383562
0
LINE
8
0
10
3.581020
20
141.384000
11
3.498995
21
140.551699
0
LINE
8
0
10
3.498990
20
140.551000
11
3.498990
21
102.151000
0
LINE
8
0
10
3.498990
20
102.151000
11
3.581015
21
101.318671
0
LINE
8
0
10
3.581020
20
101.319000
11
3.823793
21
100.518590
0
LINE
8
0
10
3.823790
20
100.519000
11
4.218032
21
99.781272
0
LINE
8
0
10
4.218030
20
99.780900
11
4.748695
21
99.134414
0
LINE
8
0
10
4.748700
20
99.134400
11
5.395206
21
98.603738
0
LINE
8
0
10
5.395200
20
98.603700
11
6.132906
21
98.209436
0
LINE
8
0
10
6.132910
20
98.209400
11
6.933337
21
97.966633
0
LINE
8
0
10
6.933340
20
97.966700
11
7.765661
21
97.884686
0
LINE
8
0
10
14.165600
20
97.884700
11
14.186089
21
98.092811
0
LINE
8
0
10
14.186100
20
98.092800
11
14.246792
21
98.292895
0
LINE
8
0
10
14.246800
20
98.292900
11
14.345360
21
98.477332
0
LINE
8
0
10
14.345400
20
98.477300
11
14.478095
21
98.638900
0
LINE
8
0
10
14.478100
20
98.638900
11
14.639697
21
98.771601
0
LINE
8
0
10
14.639700
20
98.771600
11
14.824126
21
98.870152
0
LINE
8
0
10
14.824100
20
98.870200
11
15.024207
21
98.930878
0
LINE
8
0
10
15.024200
20
98.930800
11
15.232308
21
98.951402
0
LINE
8
0
10
15.232300
20
98.951300
11
15.440405
21
98.930698
0
LINE
8
0
10
15.440400
20
98.930800
11
15.640507
21
98.870122
0
LINE
8
0
10
15.640500
20
98.870200
11
15.824926
21
98.771648
0
LINE
8
0
10
15.825000
20
98.771600
11
15.986600
21
98.638899
0
LINE
8
0
10
15.986600
20
98.638900
11
16.119295
21
98.477300
0
LINE
8
0
10
16.119200
20
98.477300
11
16.217758
21
98.292868
0
LINE
8
0
10
16.217800
20
98.292900
11
16.278495
21
98.092805
0
LINE
8
0
10
16.278500
20
98.092800
11
16.298989
21
97.884689
0
LINE
8
0
10
16.299000
20
97.884700
11
79.232300
21
97.884700
0
LINE
8
0
10
79.232300
20
97.884700
11
79.252789
21
98.092811
0
LINE
8
0
10
79.252700
20
98.092800
11
79.313395
21
98.292895
0
LINE
8
0
10
79.313400
20
98.292900
11
79.411958
21
98.477332
0
LINE
8
0
10
79.412000
20
98.477300
11
79.544695
21
98.638900
0
LINE
8
0
10
79.544700
20
98.638900
11
79.706300
21
98.771601
0
LINE
8
0
10
79.706300
20
98.771600
11
79.890726
21
98.870152
0
LINE
8
0
10
79.890700
20
98.870200
11
80.090807
21
98.930878
0
LINE
8
0
10
80.090800
20
98.930800
11
80.298905
21
98.951402
0
LINE
8
0
10
80.298900
20
98.951300
11
80.507008
21
98.930698
0
LINE
8
0
10
80.507000
20
98.930800
11
80.707107
21
98.870122
0
LINE
8
0
10
80.707100
20
98.870200
11
80.891526
21
98.771648
0
LINE
8
0
10
80.891600
20
98.771600
11
81.053197
21
98.638899
0
LINE
8
0
10
81.053200
20
98.638900
11
81.185895
21
98.477300
0
LINE
8
0
10
81.185900
20
98.477300
11
81.284460
21
98.292868
0
LINE
8
0
10
81.284400
20
98.292900
11
81.345092
21
98.092805
0
LINE
8
0
10
81.345100
20
98.092800
11
81.365589
21
97.884689
0
LINE
8
0
10
87.765600
20
97.884700
11
88.597921
21
97.966714
0
LINE
8
0
10
88.597900
20
97.966700
11
89.398327
21
98.209467
0
LINE
8
0
10
89.398300
20
98.209400
11
90.136006
21
98.603664
0
LINE
8
0
10
90.136000
20
98.603700
11
90.782506
21
99.134362
0
LINE
8
0
10
90.782600
20
99.134400
11
91.313265
21
99.780886
0
LINE
8
0
10
91.313200
20
99.780900
11
91.707442
21
100.518628
0
LINE
8
0
10
91.707500
20
100.519000
11
91.950273
21
101.319410
0
LINE
8
0
10
91.950200
20
101.319000
11
92.032225
21
102.151329
0
LINE
8
0
10
92.032300
20
102.151000
11
92.032300
21
140.551000
0
LINE
8
0
10
92.032300
20
140.551000
11
91.950275
21
141.383301
0
LINE
8
0
10
91.950200
20
141.384000
11
91.707427
21
142.184438
0
LINE
8
0
10
91.707500
20
142.184000
11
91.313258
21
142.921700
0
LINE
8
0
10
91.313200
20
142.922000
11
90.782535
21
143.568514
0
LINE
8
0
10
90.782600
20
143.568000
11
90.136094
21
144.098662
0
LINE
8
0
10
90.136000
20
144.099000
11
89.398294
21
144.493227
0
LINE
8
0
10
89.398300
20
144.493000
11
88.597873
21
144.735767
0
LINE
8
0
10
88.597900
20
144.736000
11
87.765579
21
144.818042
0
LINE
8
0
10
87.765600
20
144.818000
11
81.365600
21
144.818000
0
LINE
8
0
10
81.365600
20
144.818000
11
81.345111
21
144.609889
0
LINE
8
0
10
81.345100
20
144.610000
11
81.284408
21
144.409913
0
LINE
8
0
10
81.284400
20
144.410000
11
81.185840
21
144.225568
0
LINE
8
0
10
81.185900
20
144.225000
11
81.053205
21
144.063400
0
LINE
8
0
10
81.053200
20
144.064000
11
80.891603
21
143.931299
0
LINE
8
0
10
80.891600
20
143.931000
11
80.707174
21
143.832448
0
LINE
8
0
10
80.707100
20
143.832000
11
80.506993
21
143.771294
0
LINE
8
0
10
80.507000
20
143.772000
11
80.298892
21
143.751680
0
LINE
8
0
10
80.298900
20
143.751000
11
80.090795
21
143.771320
0
LINE
8
0
10
80.090800
20
143.772000
11
79.890693
21
143.832706
0
LINE
8
0
10
66.360500
20
132.746000
11
66.432289
21
132.017698
0
LINE
8
0
10
66.432300
20
132.018000
11
66.360511
21
131.289641
0
LINE
8
0
10
66.360500
20
131.290000
11
66.148128
21
130.589666
0
LINE
8
0
10
66.148100
20
130.589000
11
65.803033
21
129.943558
0
LINE
8
0
10
65.803000
20
129.944000
11
65.338787
21
129.378258
0
LINE
8
0
10
65.338800
20
129.378000
11
65.312243
21
129.356269
0
LINE
8
0
10
65.312300
20
129.356000
11
65.312300
21
128.711000
0
LINE
8
0
10
65.312300
20
128.711000
11
71.232300
21
128.711000
0
LINE
8
0
10
71.232300
20
128.711000
11
71.232300
21
122.525000
0
LINE
8
0
10
71.232300
20
122.525000
11
65.312300
21
122.525000
0
LINE
8
0
10
65.312300
20
122.525000
11
65.312300
21
106.525000
0
LINE
8
0
10
65.312300
20
106.525000
11
62.218900
21
106.525000
0
LINE
8
0
10
62.218900
20
106.525000
11
62.218900
21
117.938000
0
LINE
8
0
10
62.218900
20
117.938000
11
57.685600
21
117.938000
0
LINE
8
0
10
57.685600
20
117.938000
11
57.685600
21
119.378000
0
LINE
8
0
10
57.685600
20
119.378000
11
33.312300
21
119.378000
0
LINE
8
0
10
33.312300
20
119.378000
11
33.312300
21
106.525000
0
LINE
8
0
10
33.312300
20
106.525000
11
30.219000
21
106.525000
0
LINE
8
0
10
30.219000
20
106.525000
11
30.219000
21
122.525000
0
LINE
8
0
10
30.219000
20
122.525000
11
24.299000
21
122.525000
0
LINE
8
0
10
24.299000
20
122.525000
11
24.299000
21
128.711000
0
LINE
8
0
10
24.299000
20
128.711000
11
30.219000
21
128.711000
0
LINE
8
0
10
30.219000
20
128.711000
11
30.219000
21
129.356000
0
LINE
8
0
10
30.219000
20
129.356000
11
30.192443
21
129.377731
0
LINE
8
0
10
30.192400
20
129.378000
11
29.728187
21
129.943742
0
LINE
8
0
10
29.728200
20
129.944000
11
29.383133
21
130.589442
0
LINE
8
0
10
29.383100
20
130.589000
11
29.170728
21
131.289334
0
LINE
8
0
10
29.170800
20
131.290000
11
29.099011
21
132.018359
0
LINE
8
0
10
29.099000
20
132.018000
11
29.170789
21
132.746302
0
LINE
8
0
10
29.170800
20
132.746000
11
29.383172
21
133.446390
0
LINE
8
0
10
29.383100
20
133.447000
11
29.728167
21
134.092442
0
LINE
8
0
10
29.728200
20
134.092000
11
30.192413
21
134.657742
0
LINE
8
0
10
30.192400
20
134.658000
11
30.758159
21
135.122227
0
LINE
8
0
10
30.758200
20
135.122000
11
31.403639
21
135.467045
0
LINE
8
0
10
31.403600
20
135.467000
11
32.103973
21
135.679372
0
LINE
8
0
10
32.104000
20
135.679000
11
32.832319
21
135.750797
0
LINE
8
0
10
32.832300
20
135.751000
11
62.698900
21
135.751000
0
LINE
8
0
10
62.698900
20
135.751000
11
63.427219
21
135.679203
0
LINE
8
0
10
63.427300
20
135.679000
11
64.127673
21
135.466628
0
LINE
8
0
10
64.127600
20
135.467000
11
64.773039
21
135.121955
0
LINE
8
0
10
64.773100
20
135.122000
11
65.338859
21
134.657773
0
LINE
8
0
10
65.338800
20
134.658000
11
65.803013
21
134.092258
0
LINE
8
0
10
65.803000
20
134.092000
11
66.148067
21
133.446558
0
LINE
8
0
10
66.148100
20
133.447000
11
66.360475
21
132.746610
0
LINE
8
0
10
79.252700
20
50.743300
11
79.232211
21
50.951411
0
LINE
8
0
10
79.232300
20
50.951400
11
16.299000
21
50.951400
0
LINE
8
0
10
16.299000
20
50.951400
11
16.278511
21
50.743289
0
LINE
8
0
10
16.278500
20
50.743300
11
16.217805
21
50.543176
0
LINE
8
0
10
16.217800
20
50.543100
11
16.119242
21
50.358696
0
LINE
8
0
10
16.119200
20
50.358700
11
15.986505
21
50.197100
0
LINE
8
0
10
15.986600
20
50.197100
11
15.825000
21
50.064399
0
LINE
8
0
10
15.825000
20
50.064400
11
15.640574
21
49.965848
0
LINE
8
0
10
15.640500
20
49.965900
11
15.440393
21
49.905194
0
LINE
8
0
10
15.440400
20
49.905200
11
15.232295
21
49.884598
0
LINE
8
0
10
15.232300
20
49.884700
11
15.024192
21
49.905302
0
LINE
8
0
10
15.024200
20
49.905200
11
14.824093
21
49.965906
0
LINE
8
0
10
14.824100
20
49.965900
11
14.639674
21
50.064452
0
LINE
8
0
10
14.639700
20
50.064400
11
14.478103
21
50.197101
0
LINE
8
0
10
14.478100
20
50.197100
11
14.345405
21
50.358700
0
LINE
8
0
10
14.345400
20
50.358700
11
14.246840
21
50.543104
0
LINE
8
0
10
14.246800
20
50.543100
11
14.186108
21
50.743224
0
LINE
8
0
10
14.186100
20
50.743300
11
14.165611
21
50.951411
0
LINE
8
0
10
14.165600
20
50.951400
11
7.765660
21
50.951400
0
LINE
8
0
10
7.765660
20
50.951400
11
6.933339
21
50.869358
0
LINE
8
0
10
6.933340
20
50.869300
11
6.132913
21
50.626533
0
LINE
8
0
10
6.132910
20
50.626600
11
5.395204
21
50.232364
0
LINE
8
0
10
5.395200
20
50.232300
11
4.748694
21
49.701638
0
LINE
8
0
10
4.748700
20
49.701700
11
4.218035
21
49.055186
0
LINE
8
0
10
4.218030
20
49.055100
11
3.823788
21
48.317400
0
LINE
8
0
10
3.823790
20
48.317400
11
3.581017
21
47.517075
0
LINE
8
0
10
3.581020
20
47.517100
11
3.498995
21
46.684686
0
LINE
8
0
10
3.498990
20
46.684700
11
3.498990
21
8.284740
0
LINE
8
0
10
3.498990
20
8.284740
11
3.581015
21
7.452721
0
LINE
8
0
10
3.581020
20
7.452720
11
3.823793
21
6.651661
0
LINE
8
0
10
3.823790
20
6.651660
11
4.218032
21
5.914609
0
LINE
8
0
10
4.218030
20
5.914610
11
4.748695
21
5.268209
0
LINE
8
0
10
4.748700
20
5.268210
11
5.395206
21
4.737012
0
LINE
8
0
10
5.395200
20
4.737010
11
6.132906
21
4.342323
0
LINE
8
0
10
6.132910
20
4.342320
11
6.933337
21
4.100202
0
LINE
8
0
10
6.933340
20
4.100200
11
7.765661
21
4.018073
0
LINE
8
0
10
7.765660
20
4.018080
11
14.165600
21
4.018080
0
LINE
8
0
10
14.165600
20
4.018080
11
14.186089
21
4.226078
0
LINE
8
0
10
14.186100
20
4.226080
11
14.246792
21
4.426599
0
LINE
8
0
10
14.246800
20
4.426590
11
14.345360
21
4.611135
0
LINE
8
0
10
14.345400
20
4.611140
11
14.478095
21
4.772204
0
LINE
8
0
10
14.478100
20
4.772200
11
14.639697
21
4.904449
0
LINE
8
0
10
14.639700
20
4.904450
11
14.824126
21
5.003651
0
LINE
8
0
10
14.824100
20
5.003650
11
15.024207
21
5.064469
0
LINE
8
0
10
15.024200
20
5.064470
11
15.232308
21
5.084790
0
LINE
8
0
10
15.232300
20
5.084740
11
15.440405
21
5.064420
0
LINE
8
0
10
15.440400
20
5.064470
11
15.640507
21
5.003651
0
LINE
8
0
10
15.640500
20
5.003650
11
15.824926
21
4.904449
0
LINE
8
0
10
15.825000
20
4.904450
11
15.986600
21
4.772201
0
LINE
8
0
10
15.986600
20
4.772200
11
16.119295
21
4.611136
0
LINE
8
0
10
16.119200
20
4.611140
11
16.217758
21
4.426595
0
LINE
8
0
10
16.217800
20
4.426590
11
16.278495
21
4.226071
0
LINE
8
0
10
16.278500
20
4.226080
11
16.298989
21
4.018082
0
LINE
8
0
10
16.299000
20
4.018080
11
79.232300
21
4.018080
0
LINE
8
0
10
79.232300
20
4.018080
11
79.252789
21
4.226078
0
LINE
8
0
10
79.252700
20
4.226080
11
79.313395
21
4.426599
0
LINE
8
0
10
79.313400
20
4.426590
11
79.411958
21
4.611135
0
LINE
8
0
10
79.412000
20
4.611140
11
79.544695
21
4.772204
0
LINE
8
0
10
79.544700
20
4.772200
11
79.706300
21
4.904449
0
LINE
8
0
10
79.706300
20
4.904450
11
79.890726
21
5.003651
0
LINE
8
0
10
79.890700
20
5.003650
11
80.090807
21
5.064469
0
LINE
8
0
10
80.090800
20
5.064470
11
80.298905
21
5.084790
0
LINE
8
0
10
80.298900
20
5.084740
11
80.507008
21
5.064420
0
LINE
8
0
10
80.507000
20
5.064470
11
80.707107
21
5.003651
0
LINE
8
0
10
80.707100
20
5.003650
11
80.891526
21
4.904449
0
LINE
8
0
10
80.891600
20
4.904450
11
81.053197
21
4.772201
0
LINE
8
0
10
81.053200
20
4.772200
11
81.185895
21
4.611136
0
LINE
8
0
10
81.185900
20
4.611140
11
81.284460
21
4.426595
0
LINE
8
0
10
81.284400
20
4.426590
11
81.345092
21
4.226071
0
LINE
8
0
10
81.345100
20
4.226080
11
81.365589
21
4.018082
0
LINE
8
0
10
81.365600
20
4.018080
11
87.765600
21
4.018080
0
LINE
8
0
10
87.765600
20
4.018080
11
88.597921
21
4.100207
0
LINE
8
0
10
88.597900
20
4.100200
11
89.398327
21
4.342318
0
LINE
8
0
10
89.398300
20
4.342320
11
90.136006
21
4.737007
0
LINE
8
0
10
90.136000
20
4.737010
11
90.782506
21
5.268208
0
LINE
8
0
10
90.782600
20
5.268210
11
91.313265
21
5.914611
0
LINE
8
0
10
91.313200
20
5.914610
11
91.707442
21
6.651661
0
LINE
8
0
10
91.707500
20
6.651660
11
91.950273
21
7.452719
0
LINE
8
0
10
91.950200
20
7.452720
11
92.032225
21
8.284739
0
LINE
8
0
10
92.032300
20
8.284740
11
92.032300
21
46.684700
0
LINE
8
0
10
92.032300
20
46.684700
11
91.950275
21
47.517114
0
LINE
8
0
10
91.950200
20
47.517100
11
91.707427
21
48.317425
0
LINE
8
0
10
91.707500
20
48.317400
11
91.313258
21
49.055100
0
LINE
8
0
10
91.313200
20
49.055100
11
90.782535
21
49.701614
0
LINE
8
0
10
90.782600
20
49.701700
11
90.136094
21
50.232362
0
LINE
8
0
10
90.136000
20
50.232300
11
89.398294
21
50.626536
0
LINE
8
0
10
89.398300
20
50.626600
11
88.597873
21
50.869367
0
LINE
8
0
10
88.597900
20
50.869300
11
87.765579
21
50.951342
0
LINE
8
0
10
87.765600
20
50.951400
11
81.365600
21
50.951400
0
LINE
8
0
10
81.365600
20
50.951400
11
81.345111
21
50.743289
0
LINE
8
0
10
81.345100
20
50.743300
11
81.284408
21
50.543176
0
LINE
8
0
10
81.284400
20
50.543100
11
81.185840
21
50.358696
0
LINE
8
0
10
81.185900
20
50.358700
11
81.053205
21
50.197100
0
LINE
8
0
10
81.053200
20
50.197100
11
80.891603
21
50.064399
0
LINE
8
0
10
80.891600
20
50.064400
11
80.707174
21
49.965848
0
LINE
8
0
10
80.707100
20
49.965900
11
80.506993
21
49.905194
0
LINE
8
0
10
80.507000
20
49.905200
11
80.298892
21
49.884598
0
LINE
8
0
10
80.298900
20
49.884700
11
80.090795
21
49.905302
0
LINE
8
0
10
80.090800
20
49.905200
11
79.890693
21
49.965906
0
LINE
8
0
10
79.890700
20
49.965900
11
79.706274
21
50.064452
0
LINE
8
0
10
79.706300
20
50.064400
11
79.544700
21
50.197101
0
LINE
8
0
10
79.544700
20
50.197100
11
79.412005
21
50.358700
0
LINE
8
0
10
79.412000
20
50.358700
11
79.313442
21
50.543104
0
LINE
8
0
10
79.313400
20
50.543100
11
79.252705
21
50.743224
0
LINE
8
0
10
24.299000
20
28.658000
11
24.299000
21
34.844700
0
LINE
8
0
10
24.299000
20
34.844700
11
71.232300
21
34.844700
0
LINE
8
0
10
71.232300
20
34.844700
11
71.232300
21
28.658000
0
LINE
8
0
10
71.232300
20
28.658000
11
24.299000
21
28.658000
0
LINE
8
0
10
62.218900
20
15.324700
11
62.218900
21
25.991400
0
LINE
8
0
10
62.218900
20
25.991400
11
65.312300
21
25.991400
0
LINE
8
0
10
65.312300
20
25.991400
11
65.312300
21
15.324700
0
LINE
8
0
10
65.312300
20
15.324700
11
62.218900
21
15.324700
0
LINE
8
0
10
30.219000
20
15.324700
11
30.219000
21
25.991400
0
LINE
8
0
10
30.219000
20
25.991400
11
33.312300
21
25.991400
0
LINE
8
0
10
33.312300
20
25.991400
11
33.312300
21
15.324700
0
LINE
8
0
10
33.312300
20
15.324700
11
30.219000
21
15.324700
0
LINE
8
0
10
79.232300
20
50.951400
11
79.252789
21
51.159511
0
LINE
8
0
10
79.252700
20
51.159500
11
79.313395
21
51.359595
0
LINE
8
0
10
79.313400
20
51.359600
11
79.411958
21
51.544032
0
LINE
8
0
10
79.412000
20
51.544000
11
79.544695
21
51.705600
0
LINE
8
0
10
79.544700
20
51.705600
11
79.706300
21
51.838273
0
LINE
8
0
10
79.706300
20
51.838300
11
79.890726
21
51.936880
0
LINE
8
0
10
79.890700
20
51.936900
11
80.090807
21
51.997578
0
LINE
8
0
10
80.090800
20
51.997400
11
80.298905
21
52.018002
0
LINE
8
0
10
80.298900
20
52.018000
11
80.507008
21
51.997398
0
LINE
8
0
10
80.507000
20
51.997500
11
80.707107
21
51.936822
0
LINE
8
0
10
80.707100
20
51.936900
11
80.891526
21
51.838320
0
LINE
8
0
10
80.891600
20
51.838300
11
81.053197
21
51.705627
0
LINE
8
0
10
81.053200
20
51.705600
11
81.185895
21
51.544000
0
LINE
8
0
10
81.185900
20
51.544000
11
81.284460
21
51.359568
0
LINE
8
0
10
81.284400
20
51.359600
11
81.345092
21
51.159505
0
LINE
8
0
10
81.345100
20
51.159500
11
81.365589
21
50.951389
0
LINE
8
0
10
87.765600
20
50.951400
11
88.597921
21
51.033414
0
LINE
8
0
10
88.597900
20
51.033400
11
89.398327
21
51.276167
0
LINE
8
0
10
89.398300
20
51.276200
11
90.136006
21
51.670436
0
LINE
8
0
10
90.136000
20
51.670400
11
90.782506
21
52.201090
0
LINE
8
0
10
90.782500
20
52.201100
11
91.313165
21
52.847586
0
LINE
8
0
10
91.313200
20
52.847600
11
91.707442
21
53.585328
0
LINE
8
0
10
91.707400
20
53.585300
11
91.950173
21
54.385710
0
LINE
8
0
10
91.950200
20
54.385700
11
92.032225
21
55.218029
0
LINE
8
0
10
92.032200
20
93.618000
11
91.950175
21
94.450414
0
LINE
8
0
10
91.950200
20
94.450400
11
91.707427
21
95.250725
0
LINE
8
0
10
91.707400
20
95.250700
11
91.313158
21
95.988400
0
LINE
8
0
10
91.313200
20
95.988400
11
90.782535
21
96.634914
0
LINE
8
0
10
90.782500
20
96.635000
11
90.135994
21
97.165662
0
LINE
8
0
10
90.136000
20
97.165600
11
89.398294
21
97.559836
0
LINE
8
0
10
89.398300
20
97.559900
11
88.597873
21
97.802667
0
LINE
8
0
10
88.597900
20
97.802600
11
87.765579
21
97.884642
0
LINE
8
0
10
87.765600
20
97.884700
11
81.365600
21
97.884700
0
LINE
8
0
10
81.365600
20
97.884700
11
81.345111
21
97.676589
0
LINE
8
0
10
81.345100
20
97.676600
11
81.284408
21
97.476505
0
LINE
8
0
10
81.284400
20
97.476500
11
81.185840
21
97.292068
0
LINE
8
0
10
81.185900
20
97.292000
11
81.053205
21
97.130400
0
LINE
8
0
10
81.053200
20
97.130400
11
80.891603
21
96.997699
0
LINE
8
0
10
80.891600
20
96.997700
11
80.707174
21
96.899148
0
LINE
8
0
10
80.707100
20
96.899200
11
80.506993
21
96.838494
0
LINE
8
0
10
80.507000
20
96.838300
11
80.298892
21
96.817980
0
LINE
8
0
10
80.298900
20
96.818000
11
80.090795
21
96.838320
0
LINE
8
0
10
80.090800
20
96.838500
11
79.890693
21
96.899206
0
LINE
8
0
10
79.890700
20
96.899200
11
79.706274
21
96.997752
0
LINE
8
0
10
79.706300
20
96.997700
11
79.544700
21
97.130401
0
LINE
8
0
10
79.544700
20
97.130400
11
79.412005
21
97.292000
0
LINE
8
0
10
79.412000
20
97.292000
11
79.313442
21
97.476432
0
LINE
8
0
10
79.313400
20
97.476500
11
79.252705
21
97.676595
0
LINE
8
0
10
79.252700
20
97.676600
11
79.232211
21
97.884711
0
LINE
8
0
10
16.299000
20
97.884700
11
16.278511
21
97.676589
0
LINE
8
0
10
16.278500
20
97.676600
11
16.217805
21
97.476505
0
LINE
8
0
10
16.217800
20
97.476500
11
16.119242
21
97.292068
0
LINE
8
0
10
16.119300
20
97.292000
11
15.986605
21
97.130400
0
LINE
8
0
10
15.986600
20
97.130400
11
15.825000
21
96.997699
0
LINE
8
0
10
15.825000
20
96.997700
11
15.640574
21
96.899148
0
LINE
8
0
10
15.640500
20
96.899200
11
15.440393
21
96.838494
0
LINE
8
0
10
15.440400
20
96.838300
11
15.232295
21
96.817980
0
LINE
8
0
10
15.232300
20
96.818000
11
15.024192
21
96.838320
0
LINE
8
0
10
15.024200
20
96.838500
11
14.824093
21
96.899206
0
LINE
8
0
10
14.824100
20
96.899200
11
14.639674
21
96.997752
0
LINE
8
0
10
14.639700
20
96.997700
11
14.478103
21
97.130401
0
LINE
8
0
10
14.478100
20
97.130400
11
14.345405
21
97.292000
0
LINE
8
0
10
14.345400
20
97.292000
11
14.246840
21
97.476432
0
LINE
8
0
10
14.246800
20
97.476500
11
14.186108
21
97.676595
0
LINE
8
0
10
14.186100
20
97.676600
11
14.165611
21
97.884711
0
LINE
8
0
10
14.165700
20
97.884700
11
7.765670
21
97.884700
0
LINE
8
0
10
7.765670
20
97.884700
11
6.933349
21
97.802658
0
LINE
8
0
10
6.933350
20
97.802600
11
6.132923
21
97.559833
0
LINE
8
0
10
6.132930
20
97.559900
11
5.395224
21
97.165664
0
LINE
8
0
10
5.395220
20
97.165600
11
4.748714
21
96.634938
0
LINE
8
0
10
4.748710
20
96.635000
11
4.218045
21
95.988486
0
LINE
8
0
10
4.218050
20
95.988400
11
3.823808
21
95.250700
0
LINE
8
0
10
3.823810
20
95.250700
11
3.581037
21
94.450375
0
LINE
8
0
10
3.581030
20
94.450400
11
3.499005
21
93.617986
0
LINE
8
0
10
92.032200
20
55.218000
11
92.032200
21
93.618000
0
LINE
8
0
10
3.499010
20
93.618000
11
3.499010
21
55.218000
0
LINE
8
0
10
3.499010
20
55.218000
11
3.581035
21
54.385671
0
LINE
8
0
10
3.581030
20
54.385700
11
3.823803
21
53.585290
0
LINE
8
0
10
3.823810
20
53.585300
11
4.218052
21
52.847572
0
LINE
8
0
10
4.218050
20
52.847600
11
4.748715
21
52.201114
0
LINE
8
0
10
4.748710
20
52.201100
11
5.395216
21
51.670410
0
LINE
8
0
10
5.395220
20
51.670400
11
6.132926
21
51.276164
0
LINE
8
0
10
6.132930
20
51.276200
11
6.933357
21
51.033433
0
LINE
8
0
10
6.933350
20
51.033400
11
7.765671
21
50.951386
0
LINE
8
0
10
14.165700
20
50.951400
11
14.186189
21
51.159511
0
LINE
8
0
10
14.186100
20
51.159500
11
14.246792
21
51.359595
0
LINE
8
0
10
14.246800
20
51.359600
11
14.345360
21
51.544032
0
LINE
8
0
10
14.345400
20
51.544000
11
14.478095
21
51.705600
0
LINE
8
0
10
14.478100
20
51.705600
11
14.639697
21
51.838273
0
LINE
8
0
10
14.639700
20
51.838300
11
14.824126
21
51.936880
0
LINE
8
0
10
14.824100
20
51.936900
11
15.024207
21
51.997578
0
LINE
8
0
10
15.024200
20
51.997400
11
15.232308
21
52.018002
0
LINE
8
0
10
15.232300
20
52.018000
11
15.440405
21
51.997398
0
LINE
8
0
10
15.440400
20
51.997500
11
15.640507
21
51.936822
0
LINE
8
0
10
15.640500
20
51.936900
11
15.824926
21
51.838320
0
LINE
8
0
10
15.825000
20
51.838300
11
15.986600
21
51.705627
0
LINE
8
0
10
15.986600
20
51.705600
11
16.119295
21
51.544000
0
LINE
8
0
10
16.119300
20
51.544000
11
16.217858
21
51.359568
0
LINE
8
0
10
16.217800
20
51.359600
11
16.278495
21
51.159505
0
LINE
8
0
10
16.278500
20
51.159500
11
16.298989
21
50.951389
0
LINE
8
0
10
49.365600
20
50.951400
11
49.365600
21
65.884700
0
LINE
8
0
10
49.365600
20
65.884700
11
49.201621
21
67.549440
0
LINE
8
0
10
49.201600
20
67.549400
11
48.716003
21
69.150250
0
LINE
8
0
10
48.716000
20
69.150300
11
47.927444
21
70.625590
0
LINE
8
0
10
47.927500
20
70.625600
11
46.866280
21
71.918740
0
LINE
8
0
10
46.866300
20
71.918700
11
45.573180
21
72.979910
0
LINE
8
0
10
45.573200
20
72.979900
11
44.097920
21
73.768372
0
LINE
8
0
10
44.097900
20
73.768400
11
42.497100
21
74.254076
0
LINE
8
0
10
42.497100
20
74.254100
11
40.832320
21
74.418043
0
LINE
8
0
10
40.832300
20
74.418000
11
36.565600
21
74.418000
0
LINE
8
0
10
36.565600
20
74.418000
11
36.565600
21
71.218000
0
LINE
8
0
10
36.565600
20
71.218000
11
40.832300
21
71.218000
0
LINE
8
0
10
40.832300
20
71.218000
11
41.872790
21
71.115497
0
LINE
8
0
10
41.872800
20
71.115500
11
42.873290
21
70.812027
0
LINE
8
0
10
42.873300
20
70.812000
11
43.795367
21
70.319099
0
LINE
8
0
10
43.795300
20
70.319100
11
44.603493
21
69.655850
0
LINE
8
0
10
44.603500
20
69.655900
11
45.266764
21
68.847786
0
LINE
8
0
10
45.266800
20
68.847800
11
45.759653
21
67.925668
0
LINE
8
0
10
45.759700
20
67.925600
11
46.063196
21
66.925180
0
LINE
8
0
10
46.063100
20
66.925200
11
46.165575
21
65.884680
0
LINE
8
0
10
46.165600
20
65.884700
11
46.165600
21
50.951400
0
LINE
8
0
10
40.299000
20
75.591400
11
40.299000
21
81.351300
0
LINE
8
0
10
40.299000
20
81.351300
11
55.232300
21
81.351300
0
LINE
8
0
10
55.232300
20
81.351300
11
55.232300
21
75.591400
0
LINE
8
0
10
55.232300
20
75.591400
11
62.218900
21
75.591400
0
LINE
8
0
10
62.218900
20
75.591400
11
62.218900
21
56.444700
0
LINE
8
0
10
62.218900
20
56.444700
11
65.312300
21
56.444700
0
LINE
8
0
10
65.312300
20
56.444700
11
65.312300
21
75.591400
0
LINE
8
0
10
65.312300
20
75.591400
11
68.032300
21
75.591400
0
LINE
8
0
10
68.032300
20
75.591400
11
68.032300
21
81.778000
0
LINE
8
0
10
68.032300
20
81.778000
11
71.232300
21
81.778000
0
LINE
8
0
10
71.232300
20
81.778000
11
71.232300
21
84.871300
0
LINE
8
0
10
71.232300
20
84.871300
11
66.411300
21
84.871300
0
LINE
8
0
10
66.411300
20
84.871300
11
66.432325
21
85.084632
0
LINE
8
0
10
66.432300
20
85.084700
11
66.360514
21
85.813030
0
LINE
8
0
10
66.360500
20
85.813000
11
66.148128
21
86.513362
0
LINE
8
0
10
66.148100
20
86.513300
11
65.803033
21
87.158742
0
LINE
8
0
10
65.803000
20
87.158800
11
65.338787
21
87.724570
0
LINE
8
0
10
65.338800
20
87.724600
11
64.773041
21
88.188912
0
LINE
8
0
10
64.773100
20
88.188900
11
64.127661
21
88.533860
0
LINE
8
0
10
64.127600
20
88.533800
11
63.427227
21
88.746285
0
LINE
8
0
10
63.427300
20
88.746300
11
62.698981
21
88.817984
0
LINE
8
0
10
62.698900
20
88.818000
11
32.832300
21
88.818000
0
LINE
8
0
10
32.832300
20
88.818000
11
32.103981
21
88.746316
0
LINE
8
0
10
32.104000
20
88.746300
11
31.403627
21
88.533815
0
LINE
8
0
10
31.403600
20
88.533800
11
30.758161
21
88.188840
0
LINE
8
0
10
30.758200
20
88.188900
11
30.192441
21
87.724588
0
LINE
8
0
10
30.192400
20
87.724600
11
29.728187
21
87.158830
0
LINE
8
0
10
29.728200
20
87.158800
11
29.383133
21
86.513358
0
LINE
8
0
10
29.383100
20
86.513300
11
29.170728
21
85.812938
0
LINE
8
0
10
29.170800
20
85.813000
11
29.099011
21
85.084670
0
LINE
8
0
10
29.099000
20
85.084700
11
29.120026
21
84.871368
0
LINE
8
0
10
29.120000
20
84.871300
11
24.299000
21
84.871300
0
LINE
8
0
10
24.299000
20
84.871300
11
24.299000
21
81.778000
0
LINE
8
0
10
24.299000
20
81.778000
11
27.499000
21
81.778000
0
LINE
8
0
10
27.499000
20
81.778000
11
27.499000
21
75.591400
0
LINE
8
0
10
27.499000
20
75.591400
11
30.219000
21
75.591400
0
LINE
8
0
10
30.219000
20
75.591400
11
30.219000
21
56.444700
0
LINE
8
0
10
30.219000
20
56.444700
11
33.312300
21
56.444700
0
LINE
8
0
10
33.312300
20
56.444700
11
33.312300
21
75.591400
0
LINE
8
0
10
33.312300
20
75.591400
11
40.299000
21
75.591400
0
LINE
8
0
10
17.876100
20
178.631000
11
18.114245
21
178.524012
0
LINE
8
0
10
17.631307
20
178.513005
11
17.876101
21
178.630985
0
LINE
8
0
10
17.580744
20
178.422431
11
17.631307
21
178.513005
0
LINE
8
0
10
17.519208
20
178.268838
11
17.580744
21
178.422432
0
LINE
8
0
10
17.445179
20
178.112459
11
17.519208
21
178.268838
0
LINE
8
0
10
17.319166
20
178.052004
11
17.445178
21
178.112459
0
LINE
8
0
10
17.189451
20
178.101395
11
17.319166
21
178.052004
0
LINE
8
0
10
17.146226
20
178.249568
11
17.189451
21
178.101396
0
LINE
8
0
10
17.239289
20
178.488314
11
17.146226
21
178.249568
0
LINE
8
0
10
17.168014
20
178.570604
11
17.239103
21
178.488313
0
LINE
8
0
10
17.036120
20
178.249567
11
17.168014
21
178.570603
0
LINE
8
0
10
17.121120
20
178.027382
11
17.036120
21
178.249567
0
LINE
8
0
10
17.318980
20
177.939591
11
17.121120
21
178.027382
0
LINE
8
0
10
17.524144
20
178.027382
11
17.318980
21
177.939591
0
LINE
8
0
10
17.623091
20
178.224869
11
17.524144
21
178.027381
0
LINE
8
0
10
17.671441
20
178.349739
11
17.623091
21
178.224870
0
LINE
8
0
10
17.708090
20
178.427929
11
17.671441
21
178.349739
0
LINE
8
0
10
17.875911
20
178.518502
11
17.708091
21
178.427928
0
LINE
8
0
10
18.040029
20
178.454034
11
17.875911
21
178.518516
0
LINE
8
0
10
18.095023
20
178.260574
11
18.040029
21
178.454034
0
LINE
8
0
10
18.043501
20
178.074002
11
18.095554
21
178.260573
0
LINE
8
0
10
17.911607
20
177.961519
11
18.043501
21
178.074001
0
LINE
8
0
10
17.969508
20
177.865450
11
17.911607
21
177.961518
0
LINE
8
0
10
18.148298
20
178.030107
11
17.969508
21
177.865450
0
LINE
8
0
10
18.208381
20
178.260572
11
18.148299
21
178.030107
0
LINE
8
0
10
18.114728
20
178.524012
11
18.208485
21
178.260572
0
LINE
8
0
10
17.052885
20
177.588156
11
17.052800
21
177.476000
0
LINE
8
0
10
18.662020
20
177.588482
11
17.052800
21
177.588000
0
LINE
8
0
10
18.662020
20
177.475518
11
18.662100
21
177.588000
0
LINE
8
0
10
17.052880
20
177.475518
11
18.662100
21
177.476000
0
LINE
8
0
10
16.674770
20
177.532428
11
16.674700
21
177.532000
0
LINE
8
0
10
16.770672
20
177.627772
11
16.674700
21
177.532000
0
LINE
8
0
10
16.866679
20
177.532000
11
16.770673
21
177.627772
0
LINE
8
0
10
16.770673
20
177.436149
11
16.866679
21
177.532000
0
LINE
8
0
10
16.674700
20
177.532000
11
16.770672
21
177.436149
0
LINE
8
0
10
14.998782
20
178.762729
11
14.937210
21
178.668419
0
LINE
8
0
10
16.540590
20
177.751621
11
14.998780
21
178.762731
0
LINE
8
0
10
16.479010
20
177.657681
11
16.540582
21
177.751627
0
LINE
8
0
10
14.937202
20
178.668425
11
16.479012
21
177.657685
0
LINE
8
0
10
16.595541
20
173.393615
11
16.377920
21
173.182569
0
LINE
8
0
10
16.872520
20
173.499868
11
16.595542
21
173.393614
0
LINE
8
0
10
16.872520
20
171.698144
11
16.872600
21
173.500000
0
LINE
8
0
10
16.364778
20
172.031700
11
16.872600
21
171.698274
0
LINE
8
0
10
16.194779
20
172.601816
11
16.364778
21
172.031699
0
LINE
8
0
10
16.377929
20
173.182699
11
16.194744
21
172.601813
0
LINE
8
0
10
17.082157
20
173.747393
11
17.082100
21
171.666000
0
LINE
8
0
10
16.638757
20
173.665290
11
17.082100
21
173.747363
0
LINE
8
0
10
16.286262
20
173.419291
11
16.638757
21
173.665290
0
LINE
8
0
10
16.056906
20
173.053551
11
16.286262
21
173.419291
0
LINE
8
0
10
15.979969
20
172.601784
11
16.056905
21
173.053551
0
LINE
8
0
10
16.061760
20
172.144590
11
15.979701
21
172.601784
0
LINE
8
0
10
16.307970
20
171.773572
11
16.061760
21
172.144590
0
LINE
8
0
10
16.675138
20
171.531533
11
16.307970
21
171.773572
0
LINE
8
0
10
17.130907
20
171.450851
11
16.675138
21
171.531533
0
LINE
8
0
10
17.583805
20
171.532944
11
17.130906
21
171.450944
0
LINE
8
0
10
17.953120
20
171.779019
11
17.583804
21
171.532944
0
LINE
8
0
10
18.199327
20
172.146074
11
17.953119
21
171.779019
0
LINE
8
0
10
18.281422
20
172.601874
11
18.199326
21
172.146074
0
LINE
8
0
10
18.228054
20
172.978383
11
18.281560
21
172.601873
0
LINE
8
0
10
18.023618
20
173.357531
11
18.228054
21
172.978383
0
LINE
8
0
10
17.690192
20
173.623757
11
18.023618
21
173.357531
0
LINE
8
0
10
17.598580
20
173.424728
11
17.690192
21
173.623757
0
LINE
8
0
10
17.991360
20
173.010627
11
17.598580
21
173.424729
0
LINE
8
0
10
18.066843
20
172.601874
11
17.991360
21
173.010627
0
LINE
8
0
10
17.999657
20
172.207923
11
18.067077
21
172.601874
0
LINE
8
0
10
17.798128
20
171.908136
11
17.999657
21
172.207923
0
LINE
8
0
10
17.487441
20
171.726548
11
17.798128
21
171.908135
0
LINE
8
0
10
17.082201
20
171.666090
11
17.487441
21
171.726548
0
LINE
8
0
10
18.238566
20
170.649708
11
14.258800
21
170.650000
0
LINE
8
0
10
18.238620
20
170.865149
11
18.238600
21
170.650000
0
LINE
8
0
10
14.258780
20
170.865149
11
18.238600
21
170.865000
0
LINE
8
0
10
14.258780
20
170.649851
11
14.258800
21
170.865000
0
LINE
8
0
10
16.775970
20
169.688500
11
16.474766
21
169.482805
0
LINE
8
0
10
17.131336
20
169.757088
11
16.775971
21
169.688500
0
LINE
8
0
10
17.489682
20
169.688500
11
17.131336
21
169.757088
0
LINE
8
0
10
17.792339
20
169.482805
11
17.489681
21
169.688500
0
LINE
8
0
10
17.993834
20
169.184262
11
17.792339
21
169.482805
0
LINE
8
0
10
18.061251
20
168.826659
11
17.993834
21
169.184262
0
LINE
8
0
10
17.993834
20
168.471691
11
18.062013
21
168.826659
0
LINE
8
0
10
17.787942
20
168.170513
11
17.993834
21
168.471692
0
LINE
8
0
10
17.486774
20
167.964816
11
17.787942
21
168.170514
0
LINE
8
0
10
17.132098
20
167.896228
11
17.486775
21
167.964816
0
LINE
8
0
10
16.773027
20
167.964816
11
17.132098
21
167.896228
0
LINE
8
0
10
16.470369
20
168.170514
11
16.773027
21
167.964816
0
LINE
8
0
10
16.268840
20
168.468980
11
16.470369
21
168.170513
0
LINE
8
0
10
16.201420
20
168.826659
11
16.268840
21
168.468979
0
LINE
8
0
10
16.268840
20
169.181623
11
16.200695
21
168.826658
0
LINE
8
0
10
16.474766
20
169.482804
11
16.268840
21
169.181622
0
LINE
8
0
10
18.632790
20
169.859240
11
18.981060
21
169.633392
0
LINE
8
0
10
18.190240
20
169.934571
11
18.632789
21
169.859240
0
LINE
8
0
10
16.017509
20
169.934571
11
18.190200
21
169.934000
0
LINE
8
0
10
16.017470
20
169.713500
11
16.017500
21
169.934000
0
LINE
8
0
10
16.405157
20
169.713500
11
16.017500
21
169.714000
0
LINE
8
0
10
16.090042
20
169.314628
11
16.405157
21
169.714000
0
LINE
8
0
10
15.985245
20
168.826587
11
16.090042
21
169.314628
0
LINE
8
0
10
16.068932
20
168.380242
11
15.985386
21
168.826587
0
LINE
8
0
10
16.318812
20
168.009151
11
16.068933
21
168.380242
0
LINE
8
0
10
16.685946
20
167.763079
11
16.318812
21
168.009151
0
LINE
8
0
10
17.131470
20
167.681079
11
16.685946
21
167.763079
0
LINE
8
0
10
17.577756
20
167.764490
11
17.131470
21
167.681172
0
LINE
8
0
10
17.948562
20
168.014595
11
17.577756
21
167.764490
0
LINE
8
0
10
18.194769
20
168.381653
11
17.948561
21
168.014595
0
LINE
8
0
10
18.276828
20
168.826680
11
18.194769
21
168.381653
0
LINE
8
0
10
18.171937
20
169.317433
11
18.276698
21
168.826680
0
LINE
8
0
10
17.856819
20
169.714096
11
18.171937
21
169.317433
0
LINE
8
0
10
18.185089
20
169.714096
11
17.856800
21
169.714000
0
LINE
8
0
10
18.553691
20
169.656108
11
18.185103
21
169.714000
0
LINE
8
0
10
18.830460
20
169.482730
11
18.553691
21
169.656107
0
LINE
8
0
10
19.003923
20
169.209762
11
18.830461
21
169.482730
0
LINE
8
0
10
19.061722
20
168.842704
11
19.003923
21
169.209762
0
LINE
8
0
10
18.959521
20
168.315677
11
19.061722
21
168.842704
0
LINE
8
0
10
18.796823
20
168.091147
11
18.959521
21
168.315677
0
LINE
8
0
10
18.566877
20
167.976833
11
18.796823
21
168.091147
0
LINE
8
0
10
18.566877
20
167.756333
11
18.566800
21
167.977000
0
LINE
8
0
10
18.879807
20
167.890967
11
18.566800
21
167.756500
0
LINE
8
0
10
19.103349
20
168.116818
11
18.879807
21
167.890967
0
LINE
8
0
10
19.282174
20
168.842871
11
19.103350
21
168.116818
0
LINE
8
0
10
19.206934
20
169.285188
11
19.282174
21
168.842873
0
LINE
8
0
10
18.980970
20
169.633487
11
19.206934
21
169.285188
0
LINE
8
0
10
18.238534
20
167.138098
11
18.238600
21
166.917000
0
LINE
8
0
10
16.888770
20
167.137571
11
18.238600
21
167.138000
0
LINE
8
0
10
16.511390
20
167.082823
11
16.888769
21
167.138000
0
LINE
8
0
10
16.227074
20
166.917429
11
16.511390
21
167.082822
0
LINE
8
0
10
16.049703
20
166.648567
11
16.227074
21
166.917429
0
LINE
8
0
10
15.991108
20
166.282904
11
16.049703
21
166.648568
0
LINE
8
0
10
16.064943
20
165.878102
11
15.990947
21
166.282904
0
LINE
8
0
10
16.286233
20
165.642802
11
16.064943
21
165.878102
0
LINE
8
0
10
16.017321
20
165.642802
11
16.286200
21
165.643000
0
LINE
8
0
10
16.017288
20
165.422503
11
16.017300
21
165.643000
0
LINE
8
0
10
18.238380
20
165.422503
11
16.017300
21
165.422000
0
LINE
8
0
10
18.238380
20
165.642497
11
18.238400
21
165.422000
0
LINE
8
0
10
16.888610
20
165.642497
11
18.238400
21
165.643000
0
LINE
8
0
10
16.388850
20
165.809788
11
16.888609
21
165.643000
0
LINE
8
0
10
16.251798
20
166.008740
11
16.388851
21
165.809788
0
LINE
8
0
10
16.205630
20
166.283103
11
16.251799
21
166.008741
0
LINE
8
0
10
16.248327
20
166.560683
11
16.204374
21
166.283104
0
LINE
8
0
10
16.380949
20
166.758981
11
16.248327
21
166.560683
0
LINE
8
0
10
16.909294
20
166.917629
11
16.380949
21
166.758981
0
LINE
8
0
10
18.237149
20
166.917629
11
16.909300
21
166.917000
0
LINE
8
0
10
16.774497
20
164.519730
11
16.473293
21
164.314035
0
LINE
8
0
10
17.129866
20
164.588321
11
16.774498
21
164.519730
0
LINE
8
0
10
17.488209
20
164.519730
11
17.129866
21
164.588321
0
LINE
8
0
10
17.790869
20
164.314035
11
17.488208
21
164.519730
0
LINE
8
0
10
17.992361
20
164.015492
11
17.790869
21
164.314035
0
LINE
8
0
10
18.059781
20
163.657889
11
17.992361
21
164.015492
0
LINE
8
0
10
17.992361
20
163.302921
11
18.060543
21
163.657889
0
LINE
8
0
10
17.786472
20
163.001743
11
17.992361
21
163.302922
0
LINE
8
0
10
17.485301
20
162.796046
11
17.786471
21
163.001744
0
LINE
8
0
10
17.130627
20
162.727458
11
17.485301
21
162.796046
0
LINE
8
0
10
16.771556
20
162.796046
11
17.130627
21
162.727458
0
LINE
8
0
10
16.468898
20
163.001744
11
16.771556
21
162.796046
0
LINE
8
0
10
16.267369
20
163.300286
11
16.468898
21
163.001743
0
LINE
8
0
10
16.199949
20
163.657889
11
16.267369
21
163.300286
0
LINE
8
0
10
16.267369
20
164.012854
11
16.199224
21
163.657889
0
LINE
8
0
10
16.473293
20
164.314035
11
16.267370
21
164.012853
0
LINE
8
0
10
18.237160
20
164.765802
11
18.237100
21
164.546000
0
LINE
8
0
10
16.015980
20
164.766494
11
18.237100
21
164.766000
0
LINE
8
0
10
16.015980
20
164.545506
11
16.016000
21
164.766000
0
LINE
8
0
10
16.403657
20
164.545506
11
16.016000
21
164.546000
0
LINE
8
0
10
16.088539
20
164.146622
11
16.403658
21
164.546000
0
LINE
8
0
10
15.983746
20
163.658581
11
16.088541
21
164.146622
0
LINE
8
0
10
16.067430
20
163.212162
11
15.983884
21
163.658581
0
LINE
8
0
10
16.317310
20
162.841145
11
16.067431
21
163.212163
0
LINE
8
0
10
16.684444
20
162.595000
11
16.317310
21
162.841146
0
LINE
8
0
10
17.129968
20
162.513001
11
16.684444
21
162.595001
0
LINE
8
0
10
17.576254
20
162.596412
11
17.129968
21
162.513021
0
LINE
8
0
10
17.947057
20
162.846514
11
17.576254
21
162.596412
0
LINE
8
0
10
18.193267
20
163.213575
11
17.947057
21
162.846514
0
LINE
8
0
10
18.275326
20
163.658599
11
18.193267
21
163.213574
0
LINE
8
0
10
18.170435
20
164.149354
11
18.275199
21
163.658598
0
LINE
8
0
10
17.855320
20
164.546014
11
18.170435
21
164.149354
0
LINE
8
0
10
18.237130
20
164.546014
11
17.855300
21
164.546000
0
LINE
8
0
10
16.759780
20
161.842130
11
16.473248
21
161.620312
0
LINE
8
0
10
17.123973
20
161.916069
11
16.759780
21
161.842130
0
LINE
8
0
10
17.484498
20
161.843541
11
17.123974
21
161.916162
0
LINE
8
0
10
17.769574
20
161.625756
11
17.484499
21
161.843541
0
LINE
8
0
10
17.954977
20
161.309775
11
17.769574
21
161.625756
0
LINE
8
0
10
18.017238
20
160.932018
11
17.954977
21
161.309775
0
LINE
8
0
10
18.017238
20
159.942445
11
18.017300
21
160.932000
0
LINE
8
0
10
16.236620
20
159.942431
11
18.017300
21
159.942000
0
LINE
8
0
10
16.236620
20
160.931569
11
16.236600
21
159.942000
0
LINE
8
0
10
16.295954
20
161.310720
11
16.236600
21
160.931572
0
LINE
8
0
10
16.473291
20
161.619959
11
16.295954
21
161.310720
0
LINE
8
0
10
15.029704
20
161.377917
11
14.811321
21
161.216554
0
LINE
8
0
10
15.316961
20
161.431779
11
15.029704
21
161.377917
0
LINE
8
0
10
15.599821
20
161.380739
11
15.316961
21
161.431892
0
LINE
8
0
10
15.822567
20
161.227512
11
15.599820
21
161.380739
0
LINE
8
0
10
16.016033
20
160.711114
11
15.822567
21
161.227513
0
LINE
8
0
10
16.016033
20
159.942113
11
16.016000
21
160.711000
0
LINE
8
0
10
14.617820
20
159.942001
11
16.016000
21
159.942000
0
LINE
8
0
10
14.617820
20
160.678752
11
14.617800
21
159.942000
0
LINE
8
0
10
14.811266
20
161.216550
11
14.617800
21
160.678751
0
LINE
8
0
10
17.571700
20
162.043511
11
17.925649
21
161.781318
0
LINE
8
0
10
17.123961
20
162.130861
11
17.571701
21
162.043510
0
LINE
8
0
10
16.742186
20
162.070406
11
17.123962
21
162.130861
0
LINE
8
0
10
16.424890
20
161.888895
11
16.742187
21
162.070406
0
LINE
8
0
10
16.191103
20
161.602519
11
16.424890
21
161.888895
0
LINE
8
0
10
16.059206
20
161.238100
11
16.191102
21
161.602519
0
LINE
8
0
10
15.755094
20
161.548654
11
16.059205
21
161.238100
0
LINE
8
0
10
15.316908
20
161.652199
11
15.755094
21
161.548655
0
LINE
8
0
10
14.924091
20
161.582296
11
15.316907
21
161.652203
0
LINE
8
0
10
14.628805
20
161.372569
11
14.924091
21
161.582297
0
LINE
8
0
10
14.455103
20
161.063333
11
14.628805
21
161.372569
0
LINE
8
0
10
14.397236
20
160.662637
11
14.455103
21
161.063333
0
LINE
8
0
10
14.397236
20
159.726853
11
14.397300
21
160.663000
0
LINE
8
0
10
18.237160
20
159.727220
11
14.397300
21
159.727000
0
LINE
8
0
10
18.237160
20
160.926370
11
18.237100
21
159.727000
0
LINE
8
0
10
18.159402
20
161.392870
11
18.237100
21
160.926371
0
LINE
8
0
10
17.925651
20
161.781473
11
18.159401
21
161.392870
0
LINE
8
0
10
14.115101
20
177.532370
11
14.115100
21
177.532000
0
LINE
8
0
10
14.309291
20
176.533050
11
14.115100
21
177.532000
0
LINE
8
0
10
14.891868
20
175.654870
11
14.309291
21
176.533049
0
LINE
8
0
10
15.769771
20
175.071779
11
14.891871
21
175.654869
0
LINE
8
0
10
16.769281
20
174.877446
11
15.769766
21
175.071778
0
LINE
8
0
10
17.768106
20
175.071778
11
16.769283
21
174.877446
0
LINE
8
0
10
18.645903
20
175.654869
11
17.768108
21
175.071779
0
LINE
8
0
10
19.228998
20
176.532899
11
18.645902
21
175.654867
0
LINE
8
0
10
19.423328
20
177.531777
11
19.228998
21
176.532903
0
LINE
8
0
10
19.228998
20
178.530653
11
19.423328
21
177.531776
0
LINE
8
0
10
18.645902
20
179.408766
11
19.228998
21
178.530658
0
LINE
8
0
10
17.768108
20
179.991848
11
18.645903
21
179.408763
0
LINE
8
0
10
16.769283
20
180.186186
11
17.768106
21
179.991848
0
LINE
8
0
10
15.769766
20
179.991848
11
16.769281
21
180.186186
0
LINE
8
0
10
14.891871
20
179.408763
11
15.769771
21
179.991848
0
LINE
8
0
10
14.309291
20
178.530728
11
14.891868
21
179.408766
0
LINE
8
0
10
14.115100
20
177.532006
11
14.309291
21
178.530730
0
LINE
8
0
10
11.832441
20
178.518058
11
11.832500
21
176.546000
0
LINE
8
0
10
11.940204
20
178.684810
11
11.832500
21
178.518172
0
LINE
8
0
10
12.198875
20
178.753692
11
11.940204
21
178.684810
0
LINE
8
0
10
13.722374
20
178.925607
11
12.198874
21
178.753691
0
LINE
8
0
10
14.025754
20
179.030178
11
13.722371
21
178.925606
0
LINE
8
0
10
14.151800
20
179.030178
11
14.025700
21
179.030000
0
LINE
8
0
10
14.409691
20
179.411271
11
14.151746
21
179.030000
0
LINE
8
0
10
14.411870
20
179.649139
11
14.408399
21
179.411271
0
LINE
8
0
10
14.650179
20
179.888836
11
14.410544
21
179.649139
0
LINE
8
0
10
14.887598
20
179.891108
11
14.650179
21
179.888568
0
LINE
8
0
10
15.546386
20
180.289989
11
14.887598
21
179.890837
0
LINE
8
0
10
16.265978
20
180.505799
11
15.546382
21
180.289989
0
LINE
8
0
10
16.265978
20
180.719774
11
16.266000
21
180.506000
0
LINE
8
0
10
16.364947
20
180.819563
11
16.266000
21
180.719975
0
LINE
8
0
10
17.170304
20
180.819563
11
16.365000
21
180.820000
0
LINE
8
0
10
17.269996
20
180.720412
11
17.170357
21
180.820000
0
LINE
8
0
10
17.269996
20
180.506804
11
17.270000
21
180.720000
0
LINE
8
0
10
17.990324
20
180.291096
11
17.270000
21
180.506392
0
LINE
8
0
10
18.648830
20
179.891797
11
17.990355
21
180.291096
0
LINE
8
0
10
18.885524
20
179.888791
11
18.648830
21
179.891895
0
LINE
8
0
10
19.124845
20
179.649193
11
18.885524
21
179.888890
0
LINE
8
0
10
19.127131
20
179.411399
11
19.123660
21
179.649194
0
LINE
8
0
10
19.384614
20
179.030055
11
19.126011
21
179.411399
0
LINE
8
0
10
19.510347
20
179.030055
11
19.384600
21
179.030000
0
LINE
8
0
10
19.813995
20
178.925504
11
19.510333
21
179.030000
0
LINE
8
0
10
21.337043
20
178.753586
11
19.813993
21
178.925504
0
LINE
8
0
10
21.596023
20
178.684630
11
21.337042
21
178.753585
0
LINE
8
0
10
21.703205
20
178.517992
11
21.596023
21
178.684630
0
LINE
8
0
10
21.703205
20
176.545820
11
21.703200
21
178.518000
0
LINE
8
0
10
21.596018
20
176.379040
11
21.703237
21
176.545822
0
LINE
8
0
10
21.337037
20
176.309935
11
21.596018
21
176.379040
0
LINE
8
0
10
19.813988
20
176.138022
11
21.337038
21
176.309935
0
LINE
8
0
10
19.510328
20
176.033896
11
19.813990
21
176.138022
0
LINE
8
0
10
19.384940
20
176.033896
11
19.510300
21
176.034000
0
LINE
8
0
10
18.901352
20
175.397417
11
19.384911
21
176.034000
0
LINE
8
0
10
18.428105
20
175.010570
11
18.901352
21
175.397415
0
LINE
8
0
10
17.902701
20
174.734233
11
18.428105
21
175.010571
0
LINE
8
0
10
17.343585
20
174.568476
11
17.902698
21
174.734233
0
LINE
8
0
10
16.766858
20
174.513222
11
17.343584
21
174.568475
0
LINE
8
0
10
16.190164
20
174.568475
11
16.766859
21
174.513222
0
LINE
8
0
10
15.631019
20
174.734233
11
16.190166
21
174.568476
0
LINE
8
0
10
15.105616
20
175.010571
11
15.631017
21
174.734233
0
LINE
8
0
10
14.632228
20
175.397415
11
15.105616
21
175.010570
0
LINE
8
0
10
14.148565
20
176.034000
11
14.632229
21
175.397417
0
LINE
8
0
10
14.023281
20
176.034000
11
14.148600
21
176.034000
0
LINE
8
0
10
13.719205
20
176.138126
11
14.023316
21
176.034000
0
LINE
8
0
10
12.196426
20
176.310039
11
13.719196
21
176.138126
0
LINE
8
0
10
11.937756
20
176.379144
11
12.196424
21
176.310039
0
LINE
8
0
10
11.830052
20
176.545926
11
11.937756
21
176.379144
0
LINE
8
0
10
47.462200
20
173.160000
11
47.462200
21
174.417000
0
LINE
8
0
10
47.462200
20
173.787109
11
49.349000
21
173.787000
0
LINE
8
0
10
47.462200
20
172.712490
11
49.349000
21
172.712000
0
LINE
8
0
10
47.462200
20
171.452220
11
49.349000
21
172.712000
0
LINE
8
0
10
47.462200
20
171.452220
11
49.349000
21
171.452000
0
LINE
8
0
10
47.462200
20
170.286280
11
47.462200
21
169.927000
0
LINE
8
0
10
47.553386
20
170.465683
11
47.462200
21
170.286122
0
LINE
8
0
10
47.732964
20
170.645244
11
47.553386
21
170.465683
0
LINE
8
0
10
47.912513
20
170.736450
11
47.732963
21
170.645244
0
LINE
8
0
10
48.180426
20
170.824805
11
47.912513
21
170.736450
0
LINE
8
0
10
48.630768
20
170.824805
11
48.180400
21
170.825000
0
LINE
8
0
10
48.898655
20
170.736645
11
48.630742
21
170.825000
0
LINE
8
0
10
49.079644
20
170.645439
11
48.898655
21
170.736645
0
LINE
8
0
10
49.259194
20
170.465878
11
49.079644
21
170.645439
0
LINE
8
0
10
49.348968
20
170.286317
11
49.259193
21
170.465878
0
LINE
8
0
10
49.348968
20
169.927195
11
49.349000
21
170.287000
0
LINE
8
0
10
49.259225
20
169.748317
11
49.349000
21
169.927878
0
LINE
8
0
10
49.079676
20
169.568756
11
49.259226
21
169.748317
0
LINE
8
0
10
48.898687
20
169.477550
11
49.079676
21
169.568756
0
LINE
8
0
10
48.630774
20
169.389195
11
48.898687
21
169.477550
0
LINE
8
0
10
48.180432
20
169.389195
11
48.630800
21
169.389000
0
LINE
8
0
10
47.912545
20
169.477355
11
48.180458
21
169.389000
0
LINE
8
0
10
47.732995
20
169.568561
11
47.912545
21
169.477355
0
LINE
8
0
10
47.553418
20
169.748122
11
47.732996
21
169.568561
0
LINE
8
0
10
47.462232
20
169.927683
11
47.553418
21
169.748122
0
LINE
8
0
10
48.362887
20
168.220422
11
49.349027
21
168.850313
0
LINE
8
0
10
48.362887
20
168.399985
11
48.362900
21
167.590000
0
LINE
8
0
10
48.271686
20
168.667370
11
48.362900
21
168.399454
0
LINE
8
0
10
48.180472
20
168.758576
11
48.271686
21
168.667370
0
LINE
8
0
10
48.003773
20
168.849781
11
48.180472
21
168.758576
0
LINE
8
0
10
47.821373
20
168.849781
11
48.003700
21
168.850000
0
LINE
8
0
10
47.644573
20
168.758794
11
47.821300
21
168.850000
0
LINE
8
0
10
47.553358
20
168.667589
11
47.644572
21
168.758795
0
LINE
8
0
10
47.462172
20
168.399673
11
47.553358
21
168.667589
0
LINE
8
0
10
47.462172
20
167.590219
11
47.462200
21
168.400000
0
LINE
8
0
10
47.462200
20
167.590548
11
49.349000
21
167.590000
0
LINE
8
0
10
48.362860
20
165.973950
11
48.362900
21
166.693000
0
LINE
8
0
10
47.462245
20
165.974756
11
47.462200
21
167.143000
0
LINE
8
0
10
47.462200
20
165.974430
11
49.349000
21
165.974000
0
LINE
8
0
10
40.177000
20
112.312000
11
40.177000
21
114.199000
0
LINE
8
0
10
41.436780
20
112.312180
11
40.177000
21
114.199000
0
LINE
8
0
10
41.436780
20
112.312180
11
41.436800
21
114.199000
0
LINE
8
0
10
41.972675
20
112.312180
11
42.423003
21
114.199000
0
LINE
8
0
10
42.873331
20
112.312180
11
42.423003
21
114.199000
0
LINE
8
0
10
42.873331
20
112.312180
11
43.320808
21
114.199000
0
LINE
8
0
10
43.768288
20
112.312180
11
43.320808
21
114.199000
0
LINE
8
0
10
44.757288
20
112.312180
11
45.116400
21
112.312000
0
LINE
8
0
10
44.577717
20
112.403214
11
44.757278
21
112.312000
0
LINE
8
0
10
44.398156
20
112.582764
11
44.577717
21
112.403214
0
LINE
8
0
10
44.306950
20
112.762341
11
44.398156
21
112.582763
0
LINE
8
0
10
44.218595
20
113.030254
11
44.306950
21
112.762341
0
LINE
8
0
10
44.218595
20
113.480596
11
44.218600
21
113.030000
0
LINE
8
0
10
44.306955
20
113.748255
11
44.218600
21
113.480342
0
LINE
8
0
10
44.398161
20
113.929244
11
44.306955
21
113.748255
0
LINE
8
0
10
44.577722
20
114.108794
11
44.398161
21
113.929244
0
LINE
8
0
10
44.757283
20
114.198568
11
44.577722
21
114.108793
0
LINE
8
0
10
45.116405
20
114.198568
11
44.757300
21
114.199000
0
LINE
8
0
10
45.295983
20
114.109225
11
45.116422
21
114.199000
0
LINE
8
0
10
45.475544
20
113.929676
11
45.295983
21
114.109226
0
LINE
8
0
10
45.566750
20
113.748687
11
45.475544
21
113.929676
0
LINE
8
0
10
45.655105
20
113.480774
11
45.566750
21
113.748687
0
LINE
8
0
10
45.655105
20
113.030432
11
45.655100
21
113.481000
0
LINE
8
0
10
45.566745
20
112.762745
11
45.655100
21
113.030658
0
LINE
8
0
10
45.475539
20
112.583167
11
45.566745
21
112.762745
0
LINE
8
0
10
45.295978
20
112.403618
11
45.475539
21
112.583168
0
LINE
8
0
10
45.116417
20
112.312404
11
45.295978
21
112.403618
0
LINE
8
0
10
46.823678
20
114.199228
11
47.453600
21
114.199000
0
LINE
8
0
10
46.552942
20
114.109225
11
46.823709
21
114.199000
0
LINE
8
0
10
46.376232
20
113.929676
11
46.552942
21
114.109226
0
LINE
8
0
10
46.285026
20
113.748687
11
46.376232
21
113.929676
0
LINE
8
0
10
46.193821
20
113.480774
11
46.285026
21
113.748687
0
LINE
8
0
10
46.193821
20
113.030432
11
46.193800
21
113.481000
0
LINE
8
0
10
46.285006
20
112.762745
11
46.193800
21
113.030658
0
LINE
8
0
10
46.376211
20
112.583167
11
46.285005
21
112.762745
0
LINE
8
0
10
46.552921
20
112.403618
11
46.376211
21
112.583168
0
LINE
8
0
10
46.823688
20
112.312404
11
46.552921
21
112.403618
0
LINE
8
0
10
47.453579
20
112.312404
11
46.823700
21
112.312000
0
LINE
8
0
10
47.453591
20
112.312000
11
47.453600
21
114.199000
0
LINE
8
0
10
50.235370
20
114.199000
11
49.066800
21
114.199000
0
LINE
8
0
10
50.235370
20
113.212832
11
49.517100
21
113.213000
0
LINE
8
0
10
50.235344
20
112.312345
11
49.066800
21
112.312000
0
LINE
8
0
10
50.235370
20
112.312000
11
50.235300
21
114.199000
0
LINE
8
0
10
50.953544
20
113.929676
11
50.862338
21
113.748687
0
LINE
8
0
10
51.133105
20
114.109226
11
50.953544
21
113.929676
0
LINE
8
0
10
51.312666
20
114.199000
11
51.133105
21
114.109225
0
LINE
8
0
10
51.671788
20
114.199000
11
51.312700
21
114.199000
0
LINE
8
0
10
51.851386
20
114.109225
11
51.671822
21
114.199000
0
LINE
8
0
10
52.030947
20
113.929676
11
51.851386
21
114.109226
0
LINE
8
0
10
52.122153
20
113.748687
11
52.030947
21
113.929676
0
LINE
8
0
10
52.210508
20
113.480774
11
52.122153
21
113.748687
0
LINE
8
0
10
52.210508
20
113.030432
11
52.210500
21
113.481000
0
LINE
8
0
10
52.122145
20
112.762745
11
52.210500
21
113.030658
0
LINE
8
0
10
52.030939
20
112.583167
11
52.122145
21
112.762745
0
LINE
8
0
10
51.851378
20
112.403618
11
52.030939
21
112.583168
0
LINE
8
0
10
51.671814
20
112.312404
11
51.851378
21
112.403618
0
LINE
8
0
10
51.312692
20
112.312404
11
51.671800
21
112.312000
0
LINE
8
0
10
51.133117
20
112.403214
11
51.312678
21
112.312000
0
LINE
8
0
10
50.953556
20
112.582764
11
51.133117
21
112.403214
0
LINE
8
0
10
50.862350
20
112.762341
11
50.953556
21
112.582763
0
LINE
8
0
10
53.738176
20
113.571782
11
52.837500
21
113.572000
0
LINE
8
0
10
53.287828
20
112.312220
11
52.569581
21
114.199040
0
LINE
8
0
10
53.287828
20
112.312220
11
54.006072
21
114.199040
0
LINE
8
0
10
55.354212
20
113.212872
11
54.636000
21
113.213000
0
LINE
8
0
10
55.354244
20
112.312345
11
54.185700
21
112.312000
0
LINE
8
0
10
55.354270
20
112.312000
11
55.354200
21
114.199000
0
LINE
8
0
10
45.836030
20
110.450950
11
46.645500
21
110.451000
0
LINE
8
0
10
45.568130
20
110.362664
11
45.836046
21
110.451000
0
LINE
8
0
10
45.476924
20
110.271450
11
45.568130
21
110.362664
0
LINE
8
0
10
45.385719
20
110.091872
11
45.476924
21
110.271450
0
LINE
8
0
10
45.385719
20
109.821108
11
45.385700
21
110.092000
0
LINE
8
0
10
45.476906
20
109.644537
11
45.385700
21
109.821236
0
LINE
8
0
10
45.568111
20
109.553323
11
45.476905
21
109.644537
0
LINE
8
0
10
45.836027
20
109.462109
11
45.568111
21
109.553323
0
LINE
8
0
10
46.645481
20
109.462109
11
45.836100
21
109.462000
0
LINE
8
0
10
46.645549
20
109.462000
11
46.645500
21
111.349000
0
LINE
8
0
10
47.811220
20
109.462180
11
48.170400
21
109.462000
0
LINE
8
0
10
47.631714
20
109.553214
11
47.811278
21
109.462000
0
LINE
8
0
10
47.452156
20
109.732792
11
47.631714
21
109.553214
0
LINE
8
0
10
47.360947
20
109.912341
11
47.452156
21
109.732791
0
LINE
8
0
10
47.272592
20
110.180254
11
47.360947
21
109.912341
0
LINE
8
0
10
47.272592
20
110.630596
11
47.272600
21
110.180000
0
LINE
8
0
10
47.360955
20
110.898255
11
47.272600
21
110.630342
0
LINE
8
0
10
47.452164
20
111.079244
11
47.360955
21
110.898255
0
LINE
8
0
10
47.631722
20
111.258794
11
47.452164
21
111.079244
0
LINE
8
0
10
47.811286
20
111.348568
11
47.631722
21
111.258793
0
LINE
8
0
10
48.170408
20
111.348568
11
47.811200
21
111.349000
0
LINE
8
0
10
48.349883
20
111.259225
11
48.170322
21
111.349000
0
LINE
8
0
10
48.529444
20
111.079676
11
48.349883
21
111.259226
0
LINE
8
0
10
48.620650
20
110.898687
11
48.529444
21
111.079676
0
LINE
8
0
10
48.709005
20
110.630774
11
48.620650
21
110.898687
0
LINE
8
0
10
48.709005
20
110.180432
11
48.709000
21
110.630000
0
LINE
8
0
10
48.620645
20
109.911745
11
48.709000
21
110.179658
0
LINE
8
0
10
48.529439
20
109.732195
11
48.620645
21
109.911745
0
LINE
8
0
10
48.349878
20
109.552618
11
48.529439
21
109.732196
0
LINE
8
0
10
48.170317
20
109.461404
11
48.349878
21
109.552618
0
LINE
8
0
10
50.325058
20
109.461404
11
49.068200
21
109.462000
0
LINE
8
0
10
49.698088
20
109.462000
11
49.698100
21
111.349000
0
LINE
8
0
10
40.177000
20
93.403500
11
40.177000
21
95.290300
0
LINE
8
0
10
41.436780
20
93.403480
11
40.177000
21
95.290300
0
LINE
8
0
10
41.436780
20
93.403480
11
41.436800
21
95.290300
0
LINE
8
0
10
41.972675
20
93.403480
11
42.423003
21
95.290300
0
LINE
8
0
10
42.873331
20
93.403480
11
42.423003
21
95.290300
0
LINE
8
0
10
42.873331
20
93.403480
11
43.320808
21
95.290300
0
LINE
8
0
10
43.768288
20
93.403480
11
43.320808
21
95.290300
0
LINE
8
0
10
44.757288
20
93.403480
11
45.116400
21
93.403500
0
LINE
8
0
10
44.577717
20
93.494686
11
44.757278
21
93.403500
0
LINE
8
0
10
44.398156
20
93.674264
11
44.577717
21
93.494686
0
LINE
8
0
10
44.306950
20
93.853813
11
44.398156
21
93.674263
0
LINE
8
0
10
44.218595
20
94.121726
11
44.306950
21
93.853813
0
LINE
8
0
10
44.218595
20
94.572068
11
44.218600
21
94.121700
0
LINE
8
0
10
44.306955
20
94.839955
11
44.218600
21
94.572042
0
LINE
8
0
10
44.398161
20
95.020944
11
44.306955
21
94.839955
0
LINE
8
0
10
44.577722
20
95.200494
11
44.398161
21
95.020944
0
LINE
8
0
10
44.757283
20
95.290297
11
44.577722
21
95.200494
0
LINE
8
0
10
45.116405
20
95.290297
11
44.757300
21
95.290300
0
LINE
8
0
10
45.295983
20
95.200497
11
45.116422
21
95.290300
0
LINE
8
0
10
45.475544
20
95.020947
11
45.295983
21
95.200497
0
LINE
8
0
10
45.566750
20
94.839958
11
45.475544
21
95.020947
0
LINE
8
0
10
45.655105
20
94.572045
11
45.566750
21
94.839958
0
LINE
8
0
10
45.655105
20
94.121703
11
45.655100
21
94.572100
0
LINE
8
0
10
45.566745
20
93.853845
11
45.655100
21
94.121758
0
LINE
8
0
10
45.475539
20
93.674295
11
45.566745
21
93.853845
0
LINE
8
0
10
45.295978
20
93.494718
11
45.475539
21
93.674296
0
LINE
8
0
10
45.116417
20
93.403532
11
45.295978
21
93.494718
0
LINE
8
0
10
46.823678
20
95.290358
11
47.453600
21
95.290300
0
LINE
8
0
10
46.552942
20
95.200497
11
46.823709
21
95.290300
0
LINE
8
0
10
46.376232
20
95.020947
11
46.552942
21
95.200497
0
LINE
8
0
10
46.285026
20
94.839958
11
46.376232
21
95.020947
0
LINE
8
0
10
46.193821
20
94.572045
11
46.285026
21
94.839958
0
LINE
8
0
10
46.193821
20
94.121703
11
46.193800
21
94.572100
0
LINE
8
0
10
46.285006
20
93.853845
11
46.193800
21
94.121758
0
LINE
8
0
10
46.376211
20
93.674295
11
46.285005
21
93.853845
0
LINE
8
0
10
46.552921
20
93.494718
11
46.376211
21
93.674296
0
LINE
8
0
10
46.823688
20
93.403532
11
46.552921
21
93.494718
0
LINE
8
0
10
47.453579
20
93.403532
11
46.823700
21
93.403500
0
LINE
8
0
10
47.453591
20
93.403500
11
47.453600
21
95.290300
0
LINE
8
0
10
50.235370
20
95.290300
11
49.066800
21
95.290300
0
LINE
8
0
10
50.235370
20
94.304132
11
49.517100
21
94.304200
0
LINE
8
0
10
50.235344
20
93.403545
11
49.066800
21
93.403500
0
LINE
8
0
10
50.235370
20
93.403500
11
50.235300
21
95.290300
0
LINE
8
0
10
50.953544
20
95.020947
11
50.862338
21
94.839958
0
LINE
8
0
10
51.133105
20
95.200497
11
50.953544
21
95.020947
0
LINE
8
0
10
51.312666
20
95.290300
11
51.133105
21
95.200497
0
LINE
8
0
10
51.671788
20
95.290300
11
51.312700
21
95.290300
0
LINE
8
0
10
51.851386
20
95.200497
11
51.671822
21
95.290300
0
LINE
8
0
10
52.030947
20
95.020947
11
51.851386
21
95.200497
0
LINE
8
0
10
52.122153
20
94.839958
11
52.030947
21
95.020947
0
LINE
8
0
10
52.210508
20
94.572045
11
52.122153
21
94.839958
0
LINE
8
0
10
52.210508
20
94.121703
11
52.210500
21
94.572100
0
LINE
8
0
10
52.122145
20
93.853845
11
52.210500
21
94.121758
0
LINE
8
0
10
52.030939
20
93.674295
11
52.122145
21
93.853845
0
LINE
8
0
10
51.851378
20
93.494718
11
52.030939
21
93.674296
0
LINE
8
0
10
51.671814
20
93.403532
11
51.851378
21
93.494718
0
LINE
8
0
10
51.312692
20
93.403532
11
51.671800
21
93.403500
0
LINE
8
0
10
51.133117
20
93.494686
11
51.312678
21
93.403500
0
LINE
8
0
10
50.953556
20
93.674264
11
51.133117
21
93.494686
0
LINE
8
0
10
50.862350
20
93.853813
11
50.953556
21
93.674263
0
LINE
8
0
10
53.738176
20
94.663282
11
52.837500
21
94.663300
0
LINE
8
0
10
53.287828
20
93.403520
11
52.569581
21
95.290340
0
LINE
8
0
10
53.287828
20
93.403520
11
54.006072
21
95.290340
0
LINE
8
0
10
55.354212
20
94.304172
11
54.636000
21
94.304200
0
LINE
8
0
10
55.354244
20
93.403545
11
54.185700
21
93.403500
0
LINE
8
0
10
55.354270
20
93.403500
11
55.354200
21
95.290300
0
LINE
8
0
10
44.684100
20
92.517750
11
43.515600
21
92.517800
0
LINE
8
0
10
44.684170
20
91.531660
11
43.965900
21
91.531600
0
LINE
8
0
10
44.684144
20
90.630945
11
43.515600
21
90.631000
0
LINE
8
0
10
44.684170
20
90.631000
11
44.684200
21
92.517800
0
LINE
8
0
10
46.211890
20
92.517800
11
45.134500
21
92.517800
0
LINE
8
0
10
46.211870
20
90.631000
11
46.211900
21
92.517800
0
LINE
8
0
10
47.468830
20
92.517800
11
48.098700
21
92.517800
0
LINE
8
0
10
47.198042
20
92.428025
11
47.468809
21
92.517800
0
LINE
8
0
10
47.021332
20
92.248476
11
47.198042
21
92.428026
0
LINE
8
0
10
46.930126
20
92.067487
11
47.021332
21
92.248476
0
LINE
8
0
10
46.838921
20
91.799574
11
46.930126
21
92.067487
0
LINE
8
0
10
46.838921
20
91.349232
11
46.838900
21
91.799600
0
LINE
8
0
10
46.930106
20
91.081345
11
46.838900
21
91.349258
0
LINE
8
0
10
47.021311
20
90.901795
11
46.930105
21
91.081345
0
LINE
8
0
10
47.198021
20
90.722218
11
47.021311
21
90.901796
0
LINE
8
0
10
47.468788
20
90.631032
11
47.198021
21
90.722218
0
LINE
8
0
10
48.098679
20
90.631032
11
47.468800
21
90.631000
0
LINE
8
0
10
48.098691
20
90.631000
11
48.098700
21
92.517800
0
LINE
8
0
10
49.355630
20
92.517800
11
49.985500
21
92.517800
0
LINE
8
0
10
49.084845
20
92.428025
11
49.355612
21
92.517800
0
LINE
8
0
10
48.908135
20
92.248476
11
49.084845
21
92.428026
0
LINE
8
0
10
48.816929
20
92.067487
11
48.908135
21
92.248476
0
LINE
8
0
10
48.725724
20
91.799574
11
48.816929
21
92.067487
0
LINE
8
0
10
48.725724
20
91.349232
11
48.725700
21
91.799600
0
LINE
8
0
10
48.816906
20
91.081345
11
48.725700
21
91.349258
0
LINE
8
0
10
48.908111
20
90.901795
11
48.816905
21
91.081345
0
LINE
8
0
10
49.084821
20
90.722218
11
48.908111
21
90.901796
0
LINE
8
0
10
49.355588
20
90.631032
11
49.084821
21
90.722218
0
LINE
8
0
10
49.985476
20
90.631032
11
49.355600
21
90.631000
0
LINE
8
0
10
49.985488
20
90.631000
11
49.985500
21
92.517800
0
LINE
8
0
10
50.703752
20
90.631000
11
50.703800
21
92.517800
0
LINE
8
0
10
51.422041
20
90.631000
11
51.422000
21
92.517800
0
LINE
8
0
10
51.422000
20
90.631000
11
52.140247
21
92.517800
0
LINE
8
0
10
52.858491
20
90.631000
11
52.140247
21
92.517800
0
LINE
8
0
10
52.858491
20
90.631000
11
52.858500
21
92.517800
0
LINE
8
0
10
45.700700
20
23.031900
11
44.532100
21
23.031900
0
LINE
8
0
10
45.700670
20
22.045732
11
44.982400
21
22.045800
0
LINE
8
0
10
45.700644
20
21.145145
11
44.532100
21
21.145100
0
LINE
8
0
10
45.700670
20
21.145100
11
45.700700
21
23.031900
0
LINE
8
0
10
47.405100
20
22.942125
11
47.584661
21
22.762547
0
LINE
8
0
10
47.137184
20
23.031900
11
47.405100
21
22.942125
0
LINE
8
0
10
46.778062
20
23.031900
11
47.137200
21
23.031900
0
LINE
8
0
10
46.507312
20
22.942125
11
46.778079
21
23.031900
0
LINE
8
0
10
46.327749
20
22.762547
11
46.507313
21
22.942125
0
LINE
8
0
10
46.327749
20
22.493223
11
46.327700
21
22.762600
0
LINE
8
0
10
46.418909
20
22.313698
11
46.327700
21
22.493276
0
LINE
8
0
10
46.507264
20
22.222512
11
46.418909
21
22.313698
0
LINE
8
0
10
46.686825
20
22.134148
11
46.507264
21
22.222512
0
LINE
8
0
10
47.225508
20
21.954570
11
46.686825
21
22.134148
0
LINE
8
0
10
47.405069
20
21.863384
11
47.225508
21
21.954569
0
LINE
8
0
10
47.496275
20
21.775019
11
47.405069
21
21.863383
0
LINE
8
0
10
47.584630
20
21.595470
11
47.496275
21
21.775020
0
LINE
8
0
10
47.584630
20
21.415893
11
47.584600
21
21.595500
0
LINE
8
0
10
47.405039
20
21.236373
11
47.584600
21
21.415923
0
LINE
8
0
10
47.137123
20
21.145159
11
47.405039
21
21.236373
0
LINE
8
0
10
46.778001
20
21.145159
11
47.137200
21
21.145100
0
LINE
8
0
10
46.507312
20
21.236314
11
46.778079
21
21.145100
0
LINE
8
0
10
46.327749
20
21.415864
11
46.507313
21
21.236314
0
LINE
8
0
10
49.112373
20
22.404884
11
48.211700
21
22.404900
0
LINE
8
0
10
48.662028
20
21.145120
11
47.943781
21
23.031940
0
LINE
8
0
10
48.662028
20
21.145120
11
49.380275
21
23.031940
0
LINE
8
0
10
50.189722
20
23.031940
11
50.999100
21
23.031900
0
LINE
8
0
10
49.921730
20
22.942125
11
50.189646
21
23.031900
0
LINE
8
0
10
49.830524
20
22.852322
11
49.921730
21
22.942125
0
LINE
8
0
10
49.739321
20
22.672772
11
49.830524
21
22.852322
0
LINE
8
0
10
49.739321
20
22.404859
11
49.739400
21
22.672800
0
LINE
8
0
10
49.830603
20
22.222487
11
49.739400
21
22.404887
0
LINE
8
0
10
49.921809
20
22.134123
11
49.830603
21
22.222487
0
LINE
8
0
10
50.189725
20
22.045760
11
49.921809
21
22.134123
0
LINE
8
0
10
50.999179
20
22.045760
11
50.189700
21
22.045800
0
LINE
8
0
10
49.921784
20
21.954586
11
50.189700
21
22.045800
0
LINE
8
0
10
49.830578
20
21.863400
11
49.921784
21
21.954586
0
LINE
8
0
10
49.739375
20
21.686673
11
49.830578
21
21.863400
0
LINE
8
0
10
49.739375
20
21.504273
11
49.739400
21
21.686600
0
LINE
8
0
10
49.830603
20
21.327473
11
49.739400
21
21.504200
0
LINE
8
0
10
49.921809
20
21.236287
11
49.830603
21
21.327473
0
LINE
8
0
10
50.189725
20
21.145073
11
49.921809
21
21.236287
0
LINE
8
0
10
50.999179
20
21.145073
11
50.189700
21
21.145100
0
LINE
8
0
10
50.999152
20
21.145100
11
50.999100
21
23.031900
 0 
ENDSEC
 0 
EOF